Oops, an error
Loading. Please wait.

Valiente tab

version 2
version 2

Whole song

338 views 3 this week
no commentswrite comment
1 2 3 4 5
3 more votes to show rating
add to favorites
×
Save as Personal and add changes to this tab that will be seen only by you. Learn more ›
×
You can save this tab as Personal to edit and correct it or add notes. All changes will be seen only by you. Learn more »
launch autoscroll
font size
0
reset
how to read this tab
guitar tuner
edit
Autoscroll
slow
fast
+/-
esc
set tempo
stop
aqui les va la cancion la intro nose si esta bien pero igual suena
el solo lo acomode a mi modo no se si les gusta
dedicada a la mas linda que he conocido M.V.A.A

e--------------10-----------------
b---------------------------------
g------11-h-12--------------------(se repite 6 veces)
d---------------------------------
a---------------------------------
E---------------------------------


G                  Bm
Empezado a hablar de ti
                  Em
a decirle a la gente
                  Am
creo que me enamore
                             G
de un amor que es poco prudente

G                    Bm
Empezado a pensar en ti
                    Em
a cantar tus canciones
                 Am-D
y me largo a reir.

CORO
C         D            Bm   Em
Dime como fue que me enamoraste
C                      D         Bm          Em
dime en que momento paso que empece a extrañarte
C                          D         Bm         E 
ahora dime que tengo que hacer para ser mas valiente.
C                      D      G
Y quedarme un ratito aqui contigo

G                     Bm
Por que si algo yo aprendi
                      Em
es que nada es por siempre
                       Am
y que mientras mas me de
                   G
mas me daña la gente

G                      Bm
Asi que si me vas a herir
                   Em
mejor no lo lamentes
                  Am-D
creo que me prepare

CORO
C         D            Bm   Em
Dime como fue que me enamoraste
C                      D         Bm          Em
dime en que momento paso que empece a extrañarte
C                          D          Bm        E 
ahora dime que tengo que hacer para ser mas valiente.
C                      D      G
Y quedarme un ratito aqui contigo

Solo:
e---------------------------------------------------------------
b---------------------------------------------------------------
g-------------------------------------10-12-12-12h10--10-12--10-
d----------------------------------12---------------------------
a-5--5-7-9--7-9-10--12-10--9-12-10------------------------------
E---------------------------------------------------------------

e--------------10-------10-10--------10-------10-10--
b10p-------------------------------------------------
g----12--11h12----11h12--------11h12----11h12--------
d----------------------------------------------------
a----------------------------------------------------
E----------------------------------------------------

e--------------------------------------
b------12---------12-------------------
g-11h12-----11h12----10-12-13-12-11-9--
d--------------------------------------
a--------------------------------------
E--------------------------------------

CORO
C         D            Bm   Em
Dime como fue que me enamoraste
C                      D         Bm          Em
dime en que momento paso que empece a extrañarte
C                          D          Bm        E 
ahora dime que tengo que hacer para ser mas valiente.
C                      D      G
Y quedarme un ratito aqui contigo

espero que les guste
la acomode un poco en el solo pero suena escuchen la cancion
y les va a sonar
te amo monse
grande cacique vamos por la 29  oidia

            
            
Suggest correction
Creating personal tab
Creating personal tab
You can edit any tab online and save it as your Personal.

You can edit, replace or remove any tab part or add personal notes – all changes will be seen only by you.

Personal tabs can be accessed anytime from any device, even offline.
Learn more »
Give kudos to tab author, rate the tab!
1 2 3 4 5
comments
print report bad tab
guest
Wanna post a correction for this tab? Suggest correction