Oops, an error
Loading. Please wait.

El Catador De Vinagre tab

by Koma
22 views 1 this week
no commentswrite comment
1 2 3 4 5
3 more votes to show rating
add to favorites
×
Save as Personal and add changes to this tab that will be seen only by you. Learn more ›
×
You can save this tab as Personal to edit and correct it or add notes. All changes will be seen only by you. Learn more »
launch autoscroll
font size
0
reset
how to read this tab
guitar tuner
edit
Autoscroll
slow
fast
+/-
esc
set tempo
stop
*: tocar en cuerda grave (afinadado en D)

Intro:
-----
A  B   D   A D A D A D A B (despues de 4 veces tokar encima el Lick 1)

D*       A D*                A A
Comunidad  se aprovechan de mi
D*               A D*            A  B  D*
Calamidad ya me han vuelto a timar
D*       A D*                A A
Por caridad   donde puedo acudir
D*               A D*            A  B  D*
Punto y final no me fio de ti

Estribillo:
----------
F      G            A
Veo el fuego por el humo
       C            F
Como puedo estar seguro
      G              D#* D#* D#*
Malo pase lo que pase
F      G            A
Hago gestos gesticulo
       C            F
Cada dos palabras juro
      G                      D#* D#* D#*
Y no me importa que me llamen
D#*  D#*  D#*    F     Intro
El catador de vinagre

Puente:
-------
            A.H          A.H
E|---------------------------|
B|---------------------------|
G|---------------------------|
D|-0-0----------0-0----------|
A|-0-0----------0-0----------|
D|-0-0--3-0-5b--0-0--5-0-6b--|
X varias veces y akabando en A B

E|-----------------------------------------|
B|-----------------------------------------|
G|-----------------------------------------|
D|-x-x-x-x--4-5----------------------------|
A|-x-x-x-x--4-5----------------------------|
D|-x-x-x-x--4-5--1-2~-2-1-2~-2-1-2-4-2-5-4~|

|-------------------------|
|-------------------------|
|----------------------5--|
|----------------0-0-0-5-0|
|----------------0-0-0-2-0|
|--1-2~-2-1-2~-2-0-0-0---0|

Lick 1:
-------
E|-s10-10-10-10--s10-10-10--13-12-10-|
B|-s10-10-10-10--s10-10-10-----------|
G|-----------------------------------|
D|-----------------------------------|
A|-----------------------------------|
D|-----------------------------------|

|--------------------------------|
|-13-11-10-----------------------|
|---------12-10-12br-10----10~--|
|------------------------12------|
|--------------------------------|
|--------------------------------|

            
            
Suggest correction
Creating personal tab
Creating personal tab
You can edit any tab online and save it as your Personal.

You can edit, replace or remove any tab part or add personal notes – all changes will be seen only by you.

Personal tabs can be accessed anytime from any device, even offline.
Learn more »
Give kudos to tab author, rate the tab!
1 2 3 4 5
comments
print report bad tab
guest
Wanna post a correction for this tab? Suggest correction