Oops, an error
Loading. Please wait.

Choir Jail bass

version 2
version 2

Whole song

82 views 1 this week
no commentswrite comment
1 2 3 4 5
3 more votes to show rating
add to favorites
×
Save as Personal and add changes to this tab that will be seen only by you. Learn more ›
×
You can save this tab as Personal to edit and correct it or add notes. All changes will be seen only by you. Learn more »
launch autoscroll
font size
0
reset
guitar tuner
edit
Autoscroll
slow
fast
+/-
esc
set tempo
stop
Intro
F#|-----------------------------------------------------------------|
C#|-----------------------------------------------------------------|
G#|-----------------1-------0-----------------------------------0-/-|
C#|-0-------2-----------------------0-------------------------------|
    1 + 2 + 3 + 4 + 1 + 2 + 3 + 4 + 1 + 2 + 3 + 4 + 1 + 2 + 3 + 4 +

F#|-----------------------------------------------------------------|
C#|-----------------------------------------------------------------|
G#|-1-----------------------------------------------------------0-/-|
C#|---------------------------------3-------------------------------|
    1 + 2 + 3 + 4 + 1 + 2 + 3 + 4 + 1 + 2 + 3 + 4 + 1 + 2 + 3 + 4 +

F#|-----------------------------------------------------------------|
C#|-----------------------------------------------------------0-1---|
G#|-3--------------------------/15\-1-1---1-1---1-1---3-3---3-------|
C#|-----------------------------------------------------------------|
    1 + 2 + 3 + 4 + 1 + 2 + 3 + 4 + 1 + 2 + 3 + 4 + 1 + 2 + 3 + 4 +

F#|---------------------------------|
C#|---------------------------------|
G#|-5-4-0-3---2-0-1---0-0-----------|
C#|---------------------------------|
    1 + 2 + 3 + 4 + 1 + 2 + 3 + 4 +

0:21
F#|------------------------------------------------------------------|
C#|------------------------------------------------------------------|
G#|---------------------------------0000------------11111111---------|
C#|-00000000222222223333333355555555----000022222222--------22222222-|
    1 + 2 + 3 + 4 + 1 + 2 + 3 + 4 + 1 + 2 + 3 + 4 + 1 + 2 + 3 + 4 +

Verse 0:26
F#|-----------------------------------------------------------------|
C#|-----------------------------------------------------------------|
G#|-----------------------------------------------------------------|
C#|-7-------------7---7-7-----7-7-\-5-------------------------------|
    1 + 2 + 3 + 4 + 1 + 2 + 3 + 4 + 1 + 2 + 3 + 4 + 1 + 2 + 3 + 4 +

F#|-----------------------------------------------------------------|
C#|-----------------------------------------------------------------|
G#|-----------------------------------------------------------------|
C#|-4-------------------------------0-r-----------2---2---2-2--/14\-|
    1 + 2 + 3 + 4 + 1 + 2 + 3 + 4 + 1 + 2 + 3 + 4 + 1 + 2 + 3 + 4 +

F#|-----------------------------------------------------------------|
C#|-----------------------------------------------------------------|
G#|-00000-----0---0---000-----000-----------------------------------|
C#|---------------------------------44444-----4---4---444-----444---|
    1 + 2 + 3 + 4 + 1 + 2 + 3 + 4 + 1 + 2 + 3 + 4 + 1 + 2 + 3 + 4 +

F#|-----------------------------------------------------------------|
C#|-----------------------------------------------------------------|
G#|-----------------------------------------------------------------|
C#|-33333-----3---3-22222---22222---00000-----0---0-11111---1-1/13\-|
    1 + 2 + 3 + 4 + 1 + 2 + 3 + 4 + 1 + 2 + 3 + 4 + 1 + 2 + 3 + 4 +

Pre Chorus 0:48
F#|---------5-------------------------------------------------------|
C#|-------3-----------------------------------------------2---2-----|
G#|-------------------------------2-3-------3-----2-3-2-3-------3-2-|
C#|-3-------------3-3-3---3-3---3---------3-----3-------------------|
    1 + 2 + 3 + 4 + 1 + 2 + 3 + 4 + 1 + 2 + 3 + 4 + 1 + 2 + 3 + 4 +

F#|-----------------------------------------------2-------212-------|
C#|-------------------------------------------2---------------------|
G#|-1-1-1------1--2---2---1-2-1-2-1-0---0-0-----------0-------------|
C#|-----------------------------------------------------------------|
    1 + 2 + 3 + 4 + 1 + 2 + 3 + 4 + 1 + 2 + 3 + 4 + 1 + 2 + 3 + 4 +

Chorus 0:57
F#|-----------------------------------------------------------------|
C#|-----------------------------------------------------------------|
G#|---------------------------------1-1-1-1-1-1-1-1-1-1-1-1-1-1-1-1-|
C#|-0-0-0-0-0-0-0-0-0-0-0-0-0-0-0-0---------------------------------|
    1 + 2 + 3 + 4 + 1 + 2 + 3 + 4 + 1 + 2 + 3 + 4 + 1 + 2 + 3 + 4 +

F#|-------------------------------------------------------3-2-------|
C#|-----------------------------------------------------------3-2---|
G#|---------------------------------3-3-3-3-3-3-3-3-0-1-3---------3-|
C#|-3-3-3-3-3-3-3-3-3-3-3-3-3-3-3-3---------------------------------|
    1 + 2 + 3 + 4 + 1 + 2 + 3 + 4 + 1 + 2 + 3 + 4 + 1 + 2 + 3 + 4 +

F#|-------------------------------------------------2-3-2---5-3-2---|
C#|-------------------------------------------------------3-------3-|
G#|---------------------------------1-1-1-1-1-1-1-1-----------------|
C#|-0-0-0-0-0-0-0-0-3-3-3-3-3-3-3-3---------------------------------|
    1 + 2 + 3 + 4 + 1 + 2 + 3 + 4 + 1 + 2 + 3 + 4 + 1 + 2 + 3 + 4 +

F#|-----------------------------------------------------------------|
C#|-----------------------------------------------------------------|
G#|---------------------------------3-3-3-3-3-3-3-3-0-0---0-0-0-0-0-|
C#|-3-3-3-3-3-3-3-3-3-3-3-3-3-3-3-3---------------------------------|
    1 + 2 + 3 + 4 + 1 + 2 + 3 + 4 + 1 + 2 + 3 + 4 + 1 + 2 + 3 + 4 +

F#|-----------------------------------------------------------------|
C#|---------------------------0-1---0-------------------------------|
G#|-1-1---1-1---1-1---3-3---3---------------------------------------|
C#|-----------------------------------------------------------------|
    1 + 2 + 3 + 4 + 1 + 2 + 3 + 4 + 1 + 2 + 3 + 4 + 1 + 2 + 3 + 4 +

Interlude 1:24
F#|-----------------------------------------------------------------|
C#|-----------------------------------------------------------------|
G#|---------------------------------0000------------11111111--------|
C#|-00000000222222223333333355555555----000022222222--------22222222|
    1 + 2 + 3 + 4 + 1 + 2 + 3 + 4 + 1 + 2 + 3 + 4 + 1 + 2 + 3 + 4 +

Verse 1:30
F#|-----------------------------------------------------------------|
C#|-----------------------------------------------------------------|
G#|-----------------------------------------------------------------|
C#|-7-------------7---7---7---5-7-6-5-------------5---5---5---5-7-5-|
    1 + 2 + 3 + 4 + 1 + 2 + 3 + 4 + 1 + 2 + 3 + 4 + 1 + 2 + 3 + 4 +

F#|-----------------------------------------------------------------|
C#|-----------------------------------------------------------------|
G#|-----------------------------------------------------------------|
C#|-4---4-4---4---4---4---4-5-4-7-5-0-0-0-0-0-2-3-2---2---2-2-------|
    1 + 2 + 3 + 4 + 1 + 2 + 3 + 4 + 1 + 2 + 3 + 4 + 1 + 2 + 3 + 4 +

F#|-----------------------------------------------------------------|
C#|-----------------------------------------------------------------|
G#|-00000-----0---0---000-----000-----------------------------------|
C#|---------------------------------44444-----4---4---444-----444---|
    1 + 2 + 3 + 4 + 1 + 2 + 3 + 4 + 1 + 2 + 3 + 4 + 1 + 2 + 3 + 4 +

F#|-----------------------------------------------------------------|
C#|-----------------------------------------------------------------|
G#|-----------------------------------------------------------------|
C#|-33333-----3---3-22222---22222---00000-----0---0-11111---1-1/13\-|
    1 + 2 + 3 + 4 + 1 + 2 + 3 + 4 + 1 + 2 + 3 + 4 + 1 + 2 + 3 + 4 +

Pre Chorus
F#|---------5-------------------------------------------------------|
C#|-------3-----------------------------------------------2---2-----|
G#|-------------------------------2-3-------3-----2-3-2-3-------3-2-|
C#|-3-------------3-3-3---3-3---3---------3-----3-------------------|
    1 + 2 + 3 + 4 + 1 + 2 + 3 + 4 + 1 + 2 + 3 + 4 + 1 + 2 + 3 + 4 +

F#|-----------------------------------------------2-------2-2-------|
C#|-------------------------------------------2---------------------|
G#|-1-1-1------1--2---2---1-2-1-2-1-0---0-0-----------0-------------|
C#|-----------------------------------------------------------------|
    1 + 2 + 3 + 4 + 1 + 2 + 3 + 4 + 1 + 2 + 3 + 4 + 1 + 2 + 3 + 4 +

Chorus 2:01
F#|-----------------------------------------------------------------|
C#|-----------------------------------------------------------------|
G#|---------------------------------1-1-1-1-1-1-1-1-1-1-1-1-1-1-1-1-|
C#|-0-0-0-0-0-0-0-0-0-0-0-0-0-0-0-0---------------------------------|
    1 + 2 + 3 + 4 + 1 + 2 + 3 + 4 + 1 + 2 + 3 + 4 + 1 + 2 + 3 + 4 +

F#|-------------------------------------------------------3-2-------|
C#|-----------------------------------------------------------3-2---|
G#|---------------------------------3-3-3-3-3-3-3-3-0-1-3---------3-|
C#|-3-3-3-3-3-3-3-3-3-3-3-3-3-3-3-3---------------------------------|
    1 + 2 + 3 + 4 + 1 + 2 + 3 + 4 + 1 + 2 + 3 + 4 + 1 + 2 + 3 + 4 +

F#|-------------------------------------------------2-3-2---5-3-2---|
C#|-------------------------------------------------------3-------3-|
G#|---------------------------------1-1-1-1-1-1-1-1-----------------|
C#|-0-0-0-0-0-0-0-0-3-3-3-3-3-3-3-3---------------------------------|
    1 + 2 + 3 + 4 + 1 + 2 + 3 + 4 + 1 + 2 + 3 + 4 + 1 + 2 + 3 + 4 +

F#|-----------------------------------------------------------------|
C#|-----------------------------------------------------------------|
G#|---------------------------------3-3-3-3-3-3-3-3-0-0---0-0-0-0-0-|
C#|-3-3-3-3-3-3-3-3-3-3-3-3-3-3-3-3---------------------------------|
    1 + 2 + 3 + 4 + 1 + 2 + 3 + 4 + 1 + 2 + 3 + 4 + 1 + 2 + 3 + 4 +

F#|-----------------------------------------------------------------|
C#|---------------------------0-1-----------------------------------|
G#|-1-1---1-1---1-1---3-3---3-------5-4-0-3---2-0-1---0-0-----------|
C#|-----------------------------------------------------------------|
    1 + 2 + 3 + 4 + 1 + 2 + 3 + 4 + 1 + 2 + 3 + 4 + 1 + 2 + 3 + 4 +

Interlude 2:28
F#|-----------------------------------------------------------------|
C#|-----------------------------------------------------------------|
G#|-----------------------------------------------------------------|
C#|-0---------------------------------------------------------/-12\-|
   1 + 2 + 3 + 4 + 1 + 2 + 3 + 4 + 1 + 2 + 3 + 4 + 1 + 2 + 3 + 4 +

F#|-----------------------------------------------------------------|
C#|-----------------------------------------------------------------|
G#|---------------------------------------------------------1--0----|
C#|---------------------------------0-0---0---0-0---0-------------2-|
    1 + 2 + 3 + 4 + 1 + 2 + 3 + 4 + 1 + 2 + 3 + 4 + 1 + 2 + 3 + 4 +

F#|-----------------------------------------------------------------|
C#|-----------------------------------------------------------------|
G#|---------------------------------1-1-1-1-1-1-1-1-----------------|
C#|-0-0-0-0-0-0-0-0-3-3-3-3-3-3-3-3-----------------5-5-5-5-5-5-5-5-|
    1 + 2 + 3 + 4 + 1 + 2 + 3 + 4 + 1 + 2 + 3 + 4 + 1 + 2 + 3 + 4 +

F#|-------------------------------------------------------3-2-------|
C#|-----------------------------------------------------------3-2---|
G#|---------------------------------1-1-1-1-1-1-1-1-0-1-3---------3-|
C#|-0-0-0-0-0-0-0-0-3-3-3-3-3-3-3-3---------------------------------|
    1 + 2 + 3 + 4 + 1 + 2 + 3 + 4 + 1 + 2 + 3 + 4 + 1 + 2 + 3 + 4 +

Bridge 2:49
F#|-----------------------------------------------------------------|
C#|-----------------------------------------------------------------|
G#|-----------------------------------------------------------------|
C#|-5-5-5-5-5-5-5-5-4-4-4-4-4-4-4-4-3-3-3-3-3-3-3-3-2-2-2-2-2-2-2-2-|
    1 + 2 + 3 + 4 + 1 + 2 + 3 + 4 + 1 + 2 + 3 + 4 + 1 + 2 + 3 + 4 +

F#|-----------------------------------------------------------------|
C#|-2-2-2-2-2-2-2----------------------------------/7-7-7-7-7-7-7-7-|
G#|---------------2-----2-----------0-0-0-0-0-0-0-0-----------------|
C#|-----------------2-2---2-2-2-4-5---------------------------------|
    1 + 2 + 3 + 4 + 1 + 2 + 3 + 4 + 1 + 2 + 3 + 4 + 1 + 2 + 3 + 4 +

Pre Chorus 
F#|---------------------------------|
C#|---------------------------------|
G#|-------0-0---1-1--/6-6-6-6---\---|
C#|-5-5-----------------------------|
    1 + 2 + 3 + 4 + 1 + 2 + 3 + 4 + 

Chorus 3:02
F#|-------------------------------------------------3---------------|
C#|----------------------------------------------------3------------|
G#|-------------------------------/-1---------------------1-1-------|
C#|-0---------------------------------------------------------------|
    1 + 2 + 3 + 4 + 1 + 2 + 3 + 4 + 1 + 2 + 3 + 4 + 1 + 2 + 3 + 4 +

F#|-------------------------------------------------------3-2-------|
C#|-----------------------------------------------------------3-2---|
G#|---------------------------------3-3-3-3-3-3-3-3-0-1-3---------3-|
C#|-3-3-3-3-3-3-3-3-3-3-3-3-3-3-3-3---------------------------------|
    1 + 2 + 3 + 4 + 1 + 2 + 3 + 4 + 1 + 2 + 3 + 4 + 1 + 2 + 3 + 4 +

F#|-------------------------------------------------2-3-2---5-3-2---|
C#|-------------------------------------------------------3-------3-|
G#|---------------------------------1-1-1-1-1-1-1-1-----------------|
C#|-0-0-0-0-0-0-0-0-3-3-3-3-3-3-3-3---------------------------------|
    1 + 2 + 3 + 4 + 1 + 2 + 3 + 4 + 1 + 2 + 3 + 4 + 1 + 2 + 3 + 4 +

F#|-----------------------------------------------------------------|
C#|-----------------------------------------------------------------|
G#|---------------------------------3-3-3-3-3-3-3-3-0-0---0-0-0-0-0-|
C#|-3-3-3-3-3-3-3-3-3-3-3-3-3-3-3-3---------------------------------|
    1 + 2 + 3 + 4 + 1 + 2 + 3 + 4 + 1 + 2 + 3 + 4 + 1 + 2 + 3 + 4 +

F#|-----------------------------------------------------------------|
C#|---------------------------0-1---0-------------------------------|
G#|-1-1---1-1---1-1---3-3---3---------------------------------------|
C#|-------------------------------------------------------/-12-\----|
    1 + 2 + 3 + 4 + 1 + 2 + 3 + 4 + 1 + 2 + 3 + 4 + 1 + 2 + 3 + 4 +

Outro 3:29
F#|-----------------------------------------------------------------|
C#|-----------------------------------------------------------------|
G#|---------------------------------0000------------11111111--------|
C#|-00000000222222223333333355555555----000022222222--------22222222|
    1 + 2 + 3 + 4 + 1 + 2 + 3 + 4 + 1 + 2 + 3 + 4 + 1 + 2 + 3 + 4 +

F#|-----------------------------------------------------------------|
C#|-----------------------------------------------------------------|
G#|---------------------------------0000------------11111111--------|
C#|-00000000222222223333333355555555----000022222222--------22222222|
    1 + 2 + 3 + 4 + 1 + 2 + 3 + 4 + 1 + 2 + 3 + 4 + 1 + 2 + 3 + 4 +

F#|-----------------------------------------------------------------|
C#|-----------------------------------------------------------------|
G#|-0-----0---------0-----0---------0-----0---------0-----0---------|
C#|-----------------------------------------------------------------|
    1 + 2 + 3 + 4 + 1 + 2 + 3 + 4 + 1 + 2 + 3 + 4 + 1 + 2 + 3 + 4 +
Tabbed by Dave Vucko

            
            
Suggest correction
Creating personal tab
Creating personal tab
You can edit any tab online and save it as your Personal.

You can edit, replace or remove any tab part or add personal notes – all changes will be seen only by you.

Personal tabs can be accessed anytime from any device, even offline.
Learn more »
Give kudos to tab author, rate the tab!
1 2 3 4 5
comments
print report bad tab
guest
You may want to rate the tab now too:
select rating
Wanna post a correction for this tab? Suggest correction