Oops, an error
Loading. Please wait.

Hoy tab

60 views 1 this week
no commentswrite comment
1 2 3 4 5
3 more votes to show rating
add to favorites
×
Save as Personal and add changes to this tab that will be seen only by you. Learn more ›
×
You can save this tab as Personal to edit and correct it or add notes. All changes will be seen only by you. Learn more »
launch autoscroll
font size
0
reset
how to read this tab
guitar tuner
edit
Autoscroll
slow
fast
+/-
esc
set tempo
stop
INTRO
E...G#-A X4      E...G#-A X4

    E                            G#-A X4
Hoy la noche no es distinta nos acompaña el alcohol.
    E                            G#-A X4
Hoy la "fiesta asegurada" se ha arrimado a mi rincón.
    E                            G#-A X4
Hoy me olvido de las penas y disfruto la ocasión.
    E                            G#-A X4
Hoy la noche no es distinta pero tiene otro color.
PRECORO
A-G# MUTE
F#             D         E
Que nadie se olvide de bailar...
F#             D         E
Que nadie se vaya sin avisar...

G------------------9---------------------|
D-6----7-6-7-9-7-9------6----7-6-7-9-7-9-|

CORO
E                            B
Hoy que nadie me hable de realidad,
F#                          B
que nadie me trate con seriedad,
E                           B
que nadie me venga dando el tostón,
F#                          B
hoy doy rienda suelta a la imaginación.
SOLO

 Mientras la 2ª guitarra toca estos acordes:

E-B-A-B

E-------------------------------------------------------
B-------------------------10-10-10-10--10-9-7-----------
G-9--9-8-6---9--9-8-9--11---9--9--9--9--------9-8----9--
D----------9--------------------------------------------
A-------------------------------------------------------
E-------------------------------------------------------

 E-B-A-B
-------------------------------------------------------------|
--------------------------------10-10-10-10--10-9-7----------|
---9----9--9-8-6---9--9-8-9--11---9--9--9--9--------9-8-11-9-|
-----------------9-------------------------------------------|
-------------------------------------------------------------|
-------------------------------------------------------------|

G#-A X8

    E                            G#-A X4
Hoy la lengua es tu enemiga la que no te deja hablar.
    E                            G#-A X4
Aunque quieras no coordinas, no te paras a pensar.
    E                            G#-A X4
Hoy te puede la bebida ya se te empieza a notar.
    E                            G#-A X4
Eres joven no te privas y no paras de privar...

PRECORO
A-G# MUTE
F#             D         E
Menuda tropa nos hemos juntao...
F#             D         E
Menuda trompa hemos agarrao...

G--------------9-|
D-6----7-6-7-9---|

CORO
E                            B
Hoy que nadie me hable de realidad
F#                          B
Que nadie me trate con seriedad,
E                            B                X2
Que nadie me venga dando el tostón
F#                          B
Hoy doy rienda suelta a la imaginación.

G#-A X4         E

ojala les guste... saludos! :D

            
            
Suggest correction
Creating personal tab
Creating personal tab
You can edit any tab online and save it as your Personal.

You can edit, replace or remove any tab part or add personal notes – all changes will be seen only by you.

Personal tabs can be accessed anytime from any device, even offline.
Learn more »
Give kudos to tab author, rate the tab!
1 2 3 4 5
comments
print report bad tab
guest
Wanna post a correction for this tab? Suggest correction