Oops, an error
Loading. Please wait.

Dead Bodies Everywhere tab

version 1
version 1

Whole song

Interactive

by Korn
9,240 views 3 this week
4 commentsread comments
1 2 3 4 5
x 12
add to favorites
×
Save as Personal and add changes to this tab that will be seen only by you. Learn more ›
×
You can save this tab as Personal to edit and correct it or add notes. All changes will be seen only by you. Learn more »
launch autoscroll
font size
0
reset
how to read this tab
guitar tuner
edit
Autoscroll
slow
fast
+/-
esc
set tempo
stop
I play a six-string but this is how i fix the problem

tuning: eBGAEA (with heavy strings (heavy bottom) its sounds ok)

> slide
~ let fade out



Intro:
clean

----------7-----------------------5-------
--2---5-------5---2---5---2---5-------5---
------------------------------------------      REPEAT
------------------------------------------
------------------------------------------
------------------------------------------


First riff:
Heavy distortion

------------------------------------------
------------------------------------------
------------------------------------------      REPEAT
----5>1---1-1------5>1---1----------------
----5>1---1-1------5>1---1----------------
----5>1---1-1------5>1---1----------------

(this could sound verrrry messy but I think that this is the right way to play)

Verse riff:
Dist. with a lot of effects!

--------12---13--------12---10------------
---10-------------9-----------------------
------------------------------------------        REPEAT
------------------------------------------
------------------------------------------
------------------------------------------


Special riff:
Dist. with a lot of effects!

----17-17-17-18-17-17---------------------
----------------------17--18-17--18--15---
------------------------------------------        REPEAT
------------------------------------------
------------------------------------------
------------------------------------------


After silent part (with scream)

Riff 2:
Heavy Distortion

"you want me to be......."

-------------------------------------------
-------------------------------------------
-------------------------------------------       REPEAT
---5-5-6-6---5-5-7-7---5-5-6-6---5-5-7-7---
---5-5-6-6---5-5-7-7---5-5-6-6---5-5-7-7---
---5-5-6-6---5-5-7-7---5-5-6-6---5-5-7-7---


Riff 3:
Heavy Distortion

"Dead body's everywhere...!!!!"

--------------------------------------------
--------------------------------------------
--------------------------------------------       REPEAT
---1-1-0-0---2-2-0-0---1-1-0-0---2-2-0-0----
---1-1-0-0---2-2-0-0---1-1-0-0---2-2-0-0----
---1-1-0-0---2-2-0-0---1-1-0-0---2-2-0-0----


End:

--------------------------------------------
--------------------------------------------
--------------------------------------------
---0~---------------------------------------
---0~---------------------------------------
---0~---------------------------------------

any comments can be send to kennethtoch@hotmail.com

            
            
Suggest correction
Creating personal tab
Creating personal tab
You can edit any tab online and save it as your Personal.

You can edit, replace or remove any tab part or add personal notes – all changes will be seen only by you.

Personal tabs can be accessed anytime from any device, even offline.
Learn more »
comments
print report bad tab
4 comments total. Showing first comments.
0 reply
realiztik 10 Oct 15, 2005 07:40 AM

Not the right tuning

0 reply
dr.happyface 71 Nov 12, 2006 08:43 AM

I think the firs riff is actually:

-------------------------------------------
-------------------------------------------
-------------------------------------------
-5/1---5-4h5-1-1-2---5/1---5-4h5-1-1h2-----
-5/1---5-4h5-1-1-2---5/1---5-4h5-1-1h2-----
-5/1---5-4h5-1-1-2---5/1---5-4h5-1-1h2-----

0 reply
dr.happyface 71 Nov 12, 2006 11:24 AM

and if you're using a 6 string, the fourth string should be G

guest
Wanna post a correction for this tab? Suggest correction