Oops, an error
Loading. Please wait.
We have an official Freak On A Leash tab made by UG professional guitarists. Check out the tab »
×
by Korn
3,742 views 1 this week
4 commentsread comments
1 2 3 4 5
x 3
add to favorites
×
Save as Personal and add changes to this tab that will be seen only by you. Learn more ›
×
You can save this tab as Personal to edit and correct it or add notes. All changes will be seen only by you. Learn more »
launch autoscroll
font size
0
reset
how to read this tab
guitar tuner
backing track
0:00
0:00
edit
Autoscroll
slow
fast
+/-
esc
set tempo
stop
Author
-------------------------------------------------------------------------------
                             FREAK ON A LEASH - Korn
-------------------------------------------------------------------------------
Tabbed by:Luis Gustavo Hernández Collado
Email:ltavo_87@hotmail.com

Tuning:DADGBe

Intro
Guitar 1
e|---------17-------------------|
B|-15r--------16r---------------|
G|------------------------------|X4
D|------------------------------|
A|------------------------------|
D|------------------------------|
r=let ring

Guitar 2
e|--------------------------10r-|
B|------------------------8-----|
G|----------------------8-------|X4
D|------------------------------|
A|------------------------------|
D|------------------------------|
r=let ring

Verse 1
(Something takes a part of me, something lost and never seen...)
Guitar 1
e|---------17-------------------|
B|-15r--------16r---------------|
G|------------------------------|X8
D|------------------------------|
A|------------------------------|
D|------------------------------|
r=let ring

Guitar 2
e|--------------------------10r-|
B|------------------------8-----|
G|----------------------8-------|X8
D|------------------------------|
A|------------------------------|
D|------------------------------|
r=let ring

Pre-chorus 1
(Sometimes I cannot take this place, sometimes it's my life I can't taste...)
Guitar 1
e|--------------------------------|
B|--------------------------------|
G|-11/12-11-11----11/12-11-11-8/7-|X4
D|-x--x--x--x-----x--x--x--x--x-x-|
A|-9/-10/9--9-----9/-10/9--9--6/5-|
D|----------0r-------------0------|

Guitar 2
e|--------------------------------|
B|--------------------------------|
G|--------------------------------|X4
D|--------------------------------|
A|-9/-10/9--9-----9/-10/9--9--6/5-|
D|--------------------------------|

Chorus 1
(Something takes a part of me, you and I were meant to be...)
Guitar 1
e|------------------------------|
B|-2----------------------------|
G|-2--------1--2--1-------------|X4
D|-2r-------2--3--2-------------|
A|-0r---------------------------|
D|------------------------------|
r=let ring 

Guitar 2
e|------------------------------|
B|------------------------------|
G|------------------------------|X4
D|-7r---------------------------|
A|-0r-------7--8--4-------------|
D|----------7--8--4-------------|
r=let ring 

Verse 2
(felling like a freak on a leash, felling like I have no release...)
Guitar 1
e|---------17-------------------|
B|-15r--------16r---------------|
G|------------------------------|X8
D|------------------------------|
A|------------------------------|
D|------------------------------|
r=let ring

Guitar 2
e|--------------------------10r-|
B|------------------------8-----|
G|----------------------8-------|X8
D|------------------------------|
A|------------------------------|
D|------------------------------|
r=let ring

Pre-chorus 2
(Sometimes I cannot take this place, sometimes it's my life I can't taste...)
Guitar 1
e|--------------------------------|
B|--------------------------------|
G|-11/12-11-11----11/12-11-11-8/7-|X4
D|-x--x--x--x-----x--x--x--x--x-x-|
A|-9/-10/9--9-----9/-10/9--9--6/5-|
D|----------0r-------------0------|

Guitar 2
e|--------------------------------|
B|--------------------------------|
G|--------------------------------|X4
D|--------------------------------|
A|-9/-10/9--9-----9/-10/9--9--6/5-|
D|--------------------------------|

Chorus 2
(Something takes a part of me, you and I were meant to be...)
Guitar 1
e|------------------------------|
B|-2----------------------------|
G|-2--------1--2--1-------------|X4
D|-2r-------2--3--2-------------|
A|-0r---------------------------|
D|------------------------------|
r=let ring 

Guitar 2
e|------------------------------|
B|------------------------------|
G|------------------------------|X4
D|-7r---------------------------|
A|-0r-------7--8--4-------------|
D|----------7--8--4-------------|
r=let ring 

Interlude
(Boom na da mmm dum na ema ...)
Guitar 1
e|------------------------------|
B|------------------------------|
G|------------------------------|X8
D|------------------------------|
A|------------------------------|
D|-9-9--------9-9---------------|

Guitar 2
e|-------8-8-------8-8/7/8------|
B|------------------------------|
G|------------------------------|X8
D|------------------------------|
A|------------------------------|
D|------------------------------|

(Go! so fight! something on the dum na ema...)
Guitar 1
e|---------------|
B|---------------|
G|---------------|X6
D|-2--345--2--31-|
A|-2--345--2--31-|
D|-2--345--2--31-|

Guitar 2
e|---------------|
B|---------------|
G|---------------|X6
D|-2--345--2--31-|
A|-2--345--2--31-|
D|-2--345--2--31-|

Chorus 3/Outro
(Something takes a part of me, you and I were meant to be...)
Guitar 1
e|----------------------|
B|----------------------|
G|-2-222-2-222--1--2--1-|X4
D|-2-222-2-222--2--3--2-|
A|-0-000-0-000----------|
D|----------------------|

Guitar 2
e|----------------------|
B|----------------------|
G|----------------------|X4
D|-7-777-7-777----------|
A|-0-000-0-000--7--8--4-|
D|--------------7--8--4-|

(A part of me, part of me...)
Guitar 1
e|----------------------|
B|----------------------|
G|-2-222-2-222--1--2--1-|X4
D|-2-222-2-222--2--3--2-|
A|-0-000-0-000----------|
D|----------------------|

Guitar 2
e|-5r--/17-5--6-3-------|
B|----------------------|
G|----------------------|X4
D|----------------------|
A|----------------------|
D|----------------------|

            
            
Suggest correction
Creating personal tab
Creating personal tab
You can edit any tab online and save it as your Personal.

You can edit, replace or remove any tab part or add personal notes – all changes will be seen only by you.

Personal tabs can be accessed anytime from any device, even offline.
Learn more »
Give kudos to tab author, rate the tab!
1 2 3 4 5
comments
print report bad tab
4 comments total. Showing first comments.
-1 reply
pfiddy4 10 Mar 10, 2007 08:13 AM

korn uses 7 string guitars

0 reply
TaV0 1,994 Mar 10, 2007 08:30 AM

so what? you can still play it on a 6-string guitar, it's not like they play all their songs just with the seventh string.

0 reply
TaV0 1,994 Mar 10, 2007 08:37 AM

have you even tried it before rating?, sounds alright.

guest
You may want to rate the tab now too:
select rating
Wanna post a correction for this tab? Suggest correction