Oops, an error
Loading. Please wait.
We have an official Here To Stay tab made by UG professional guitarists. Check out the tab »
×
by Korn
2,763 views 1 this week
4 commentsread comments
1 2 3 4 5
x 6
add to favorites
×
Save as Personal and add changes to this tab that will be seen only by you. Learn more ›
×
You can save this tab as Personal to edit and correct it or add notes. All changes will be seen only by you. Learn more »
launch autoscroll
font size
0
reset
how to read this tab
guitar tuner
backing track
0:00
0:00
edit
Autoscroll
slow
fast
+/-
esc
set tempo
stop
Author
Its funny how I think I'm the only 6 string tab of this song out there..
and it sounds exactly like the song..so fuck off seven stringers... 
Song: Here To Stay
Album: UnToUcHaBlEs
Tuning: CGCFAD
Tabbed  by: ROB WALDEN
this is an intro/verse...prechorus...and outro...
INTRO part 1:
D-------------
A-------------
F-------------
C-2-3-4-4-44-5
G-2-3-4-4-44-5
C-2-3-4-4-44-5 (X4)

INTRO part 2/Verse:
D--------------(a)  D--------------(b)
A--------------     A--------------
F--------------     F--------------
C-7-8-9-9-99-10     C-7-8-9-9-99-12
G-7-8-9-9-99-10     G-7-8-9-9-99-12
C-7-8-9-9-99-10     C-7-8-9-9-99-12  Alternate A then B. A then B

PRECHORUS:
D----------------
A----------------
F----------------
C-9/8-9/8-9/8-9/8
G-9/8-9/8-9/8-9/8
C-9/8-9/8-9/8-9/8

dont know the chorus sorry..working on it tho...

OUTRO:  *=palm mute, leave last note on each riff without palm mute, the 3 for
example in the first one and the 0 in the second one...
D------------(a)D------------(b)
A------------   A------------
F------------   F------------
C-2-2-2-222-3   C-2-2-2-222-0
G-2-2-2-222-3   G-2-2-2-222-0
C-2-2-2-222-3   C-2-2-2-222-0
  * * * ***       * * * ***     I think its a,b,a,b

well thats it...a good part of the song at least..IM me with comments at
Kornfellow91 (on aim) or email me at poopywiener99@yahoo.com THanks!!

            
            
Suggest correction
Creating personal tab
Creating personal tab
You can edit any tab online and save it as your Personal.

You can edit, replace or remove any tab part or add personal notes – all changes will be seen only by you.

Personal tabs can be accessed anytime from any device, even offline.
Learn more »
comments
print report bad tab
4 comments total. Showing first comments.
0 reply
needlenator 10 Jun 10, 2003 08:00 PM

LEAVE US SIX STRINGS ALONEU FUKIN 7 STRING RETARDS!!!!!!


INTRO part 1:
D-------------
A-------------
F-------------
C-2-3-4-4-44-5
G-2-3-4-4-44-5
C-2-3-4-4-44-5 (X4)

INTRO part 2/Verse:
D--------------(a) D--------------(b)
A-------------- A--------------
F-------------- F--------------
C-7-8-9-9-99-10 C-7-8-9-9-99-12
G-7-8-9-9-99-10 G-7-8-9-9-99-12
C-7-8-9-9-99-10 C-7-8-9-9-99-12 Alternate A then B. A then B

PRECHORUS:
D----------------
A----------------
F----------------
C-9/8-9/8-9/8-9/8
G-9/8-9/8-9/8-9/8
C-9/8-9/8-9/8-9/8

D---------------------------
A---------------------------
F---------------------------
C-----5---2------------------
G-2-5-3-5-0-3----------------
C-0-3---3---1----------------
OUTRO: *=palm mute, leave last note on each riff without palm mute, the 3 for
example in the first one and the 0 in the second one...
D------------(a)D------------(b)
A------------ A------------
F------------ F------------
C-2-2-2-222-3 C-2-2-2-222-0
G-2-2-2-222-3 G-2-2-2-222-0
C-2-2-2-222-3 C-2-2-2-222-0
* * * *** * * * *** I think its a,b,a,b

0 reply
needlenator 10 Jun 12, 2003 08:00 PM

INTRO part 1:
D-------------
A-------------
F-------------
C-2-3-4-4-44-5
G-2-3-4-4-44-5
C-2-3-4-4-44-5 (X4)

INTRO part 2/Verse:
D--------------(a) D--------------(b)
A-------------- A--------------
F-------------- F--------------
C-7-8-9-9-99-10 C-7-8-9-9-99-12
G-7-8-9-9-99-10 G-7-8-9-9-99-12
C-7-8-9-9-99-10 C-7-8-9-9-99-12 Alternate A then B. A then B

PRECHORUS:
D----------------
A----------------
F----------------
C-9/8-9/8-9/8-9/8
G-9/8-9/8-9/8-9/8
C-9/8-9/8-9/8-9/8

D------------------------
A------------------------
F-----------5----2-------
C--2--5---5---5--2--3----
G--2--5---3---5--0--3----
C--0--3-------3-----1----

OUTRO: *=palm mute, leave last note on each riff without palm mute, the 3 for
example in the first one and the 0 in the second one...
D------------(a)D------------(b)
A------------ A------------
F------------ F------------
C-2-2-2-222-3 C-2-2-2-222-0
G-2-2-2-222-3 G-2-2-2-222-0
C-2-2-2-222-3 C-2-2-2-222-0
* * * *** * * * ***

0 reply
needlenator 10 Jun 30, 2003 08:00 PM

D-------------
A-------------
F-------------
C-2-3-4-4-44-5
G-2-3-4-4-44-5
C-2-3-4-4-44-5 (X4)

INTRO part 2/Verse:
D--------------(a) D--------------(b)
A-------------- A--------------
F-------------- F--------------
C-7-8-9-9-99-10 C-7-8-9-9-99-12
G-7-8-9-9-99-10 G-7-8-9-9-99-12
C-7-8-9-9-99-10 C-7-8-9-9-99-12 Alternate A then B. A then B

PRECHORUS:
D----------------
A----------------
F----------------
C-9/8-9/8-9/8-9/8
G-9/8-9/8-9/8-9/8
C-9/8-9/8-9/8-9/8

CHORUS
D--------------------------
A--------------------------
F--------------------------
C----------5--------2------
G--2---5---3----5---0----3-
C--0---3--------3--------1-

OUTRO: *=palm mute, leave last note on each riff without palm mute, the 3 for
example in the first one and the 0 in the second one...
D------------(a)D------------(b)
A------------ A------------
F------------ F------------
C-2-2-2-222-3 C-2-2-2-222-0
G-2-2-2-222-3 G-2-2-2-222-0
C-2-2-2-222-3 C-2-2-2-222-0
* * * *** * * * *** I think its a,b,a,b

guest
You may want to rate the tab now too:
select rating
Wanna post a correction for this tab? Suggest correction