Oops, an error
Loading. Please wait.

Its On tab

version 4
version 4

Whole song

Interactive

by Korn
1,176 views 1 this week
no commentswrite comment
1 2 3 4 5
3 more votes to show rating
add to favorites
×
Save as Personal and add changes to this tab that will be seen only by you. Learn more ›
×
You can save this tab as Personal to edit and correct it or add notes. All changes will be seen only by you. Learn more »
launch autoscroll
font size
0
reset
how to read this tab
guitar tuner
backing track
0:00
0:00
edit
Autoscroll
slow
fast
+/-
esc
set tempo
stop
Gtr I (A D G C F A D) - 'Munky'
Gtr II (A D G C F A D) - 'Head'
Gtr III (A D G C F A D) - 'Fill'


 Intro
  Moderately Q=88
 4/4
  Gtr II
  Wx8           H                +E     Q        E
|------------|-------------------------------------|
|------------|-12---------------(12)---------------|
|------------|-------------------------12-------11-|
|------------|-------------------------------------|
|------------|-------------------------------------|
|------------|-------------------------------------|
|------------|-------------------------------------|
|
| Gtr I
|               PM----------------------------|
| Wx8           S S S S S S S s   S  S  S S S S  E
|------------|-------------------------------------|
|------------|-------------------------------------|
|------------|-------------------------------------|
|------------|-------------------------------------|
|------------|----3p2---2------------3p=2---2------|
|------------|-------------------------------------|
|------------|--0-----0---0---0-----------0---0----|


   +H.                        E    E
|---------------------------------12--|
|----------------------------13-------|
|-(11)--------------------------------|
|-------------------------------------|
|-------------------------------------|
|-------------------------------------|
|-------------------------------------|
|
|   PM--------------------------|
|   S  S S S S S S s S S S S  S S  E
|-------------------------------------|
|-------------------------------------|
|-------------------------------------|
|-------------------------------------|
|------3p2---2---------3p2----2-------|
|-------------------------------------|
|---0------0---0---0-------0----0-----|


   +E     Q.            +E     Q        E
|-(12)------------------------------------|
|--------12------------(12)---------------|
|-----------------------------12-------11-|
|-----------------------------------------|
|-----------------------------------------|
|-----------------------------------------|
|-----------------------------------------|
|
|   PM-------------------------------|
|   S  S  S  S S S S s   S  S  S S S S  E
|-----------------------------------------|
|-----------------------------------------|
|-----------------------------------------|
|-----------------------------------------|
|------3p=2----2------------3p=2---2------|
|-----------------------------------------|
|---0--------0---0---0-----------0---0----|


   +H.                        E    E
|---------------------------------12--|
|----------------------------13-------|
|-(11)--------------------------------|
|-------------------------------------|
|-------------------------------------|
|-------------------------------------|
|-------------------------------------|
|
|   PM--------------------------|
|   S  S S S S S S s S S S S  S S  E
|-------------------------------------|
|-------------------------------------|
|-------------------------------------|
|-------------------------------------|
|------3p2---2---------3p2----2-------|
|-------------------------------------|
|---0------0---0---0-------0----0-----|


   +E     Q.            +E     Q        E
|-(12)------------------------------------|
|--------12------------(12)---------------|
|-----------------------------12-------11-|
|-----------------------------------------|
|-----------------------------------------|
|-----------------------------------------|
|-----------------------------------------|
|
|   S  S  S  S S S S s   S  S  S S S S  E
|-----------------------------------------|
|-----------------------------------------|
|-----------------------------------------|
|-----------------------------------------|
|------3p=2----2------------3p=2---2------|
|-----------------------------------------|
|---0--------0---0---0-----------0---0----|


   +H.                        E    E
|---------------------------------12--|
|----------------------------13-------|
|-(11)--------------------------------|
|-------------------------------------|
|-------------------------------------|
|-------------------------------------|
|-------------------------------------|
|
|   S  S S S S S S s S S S S  S S  E
|-------------------------------------|
|-------------------------------------|
|-------------------------------------|
|-------------------------------------|
|------3p2---2---------3p2----2-------|
|-------------------------------------|
|---0------0---0---0-------0----0-----|


   +E     Q.            +E     Q        E    +H.                       Q
|-(12)------------------------------------|---------------------------------|
|--------12------------(12)---------------|---------------------------------|
|-----------------------------12-------11-|-(11)----------------------------|
|-----------------------------------------|---------------------------------|
|-----------------------------------------|---------------------------------|
|-----------------------------------------|---------------------------------|
|-----------------------------------------|---------------------------------|
|
|   S  S  S  S S S S s   S  S  S S S S  E     S  S S S S S S s S S S S S E.
|-----------------------------------------|---------------------------------|
|-----------------------------------------|---------------------------------|
|-----------------------------------------|---------------------------------|
|-----------------------------------------|---------------------------------|
|------3p=2----2------------3p=2---2------|------3p2---2---------3p2---x-3--|
|-----------------------------------------|----------------------------x-3--|
|---0--------0---0---0-----------0---0----|---0------0---0---0-------0---1--|


    Gtrs I, II
    S S S S S S S s S S S S S  E.   S S S S S S S s S S S S S  E.
||--------------------------------|-------------------------------|
||--------------------------------|-------------------------------|
||o-------------------------------|-------------------------------|
||--------------------------------|-------------------------------|
||o---3p2---2---------3p2---x--3--|---3p2---2---------3p2---x--3--|
||--------------------------x--3--|-------------------------x--3--|
||--0-----0---0---0-------0-------|-0-----0---0---0-------0-------|
|
|   Gtr III
|                              ~~~                             ~~~
|   H               Q       S  E.   H               Q       S  E.
||--------------------------------|-------------------------------|
||----------------------------12--|---------------------------12--|
||o---------------------------12--|---------------------------12--|
||--------------------------------|-------------------------------|
||o-------------------------------|-------------------------------|
||--------------------------------|-------------------------------|
||--------------------------------|-------------------------------|


                                 1.
  S S S S S S S s S S S S S  E.   S S S S S S S s S S S S S  E.
|-------------------------------|--------------------------------||
|-------------------------------|--------------------------------||
|-------------------------------|-------------------------------o||
|-------------------------------|--------------------------------||
|---3p2---2---------3p2---x--3--|---3p2---2---------3p2---x--3--o||
|-------------------------x--3--|-------------------------x--3---||
|-0-----0---0---0-------0-------|-0-----0---0---0-------0----1---||
|
|                            ~~~                             ~~~
| H               Q       S  E.   H               Q       S  E.
|-------------------------------|--------------------------------||
|---------------------------12--|---------------------------12---||
|---------------------------12--|---------------------------12--o||
|-------------------------------|--------------------------------||
|-------------------------------|-------------------------------o||
|-------------------------------|--------------------------------||
|-------------------------------|--------------------------------||


                                   Verse
  2.
                                Gtr II
  S S S S S S S s S S S S S  E.      H                +E     Q        E
|-------------------------------||--------------------------------------|
|-------------------------------||--12---------------(12)---------------|
|-------------------------------||o-------------------------12-------11-|
|-------------------------------||--------------------------------------|
|---3p2---2---------3p2---x--3--||o-------------------------------------|
|-------------------------x--3--||--------------------------------------|
|-0-----0---0---0-------0----1--||--------------------------------------|
|
|                               Gtr I
|                            ~~~     PM----------------------------|
| H               Q       S  E.      S S S S S S S s   S  S  S S S S  E
|-------------------------------||--------------------------------------|
|---------------------------12--||--------------------------------------|
|---------------------------12--||o-------------------------------------|
|-------------------------------||--------------------------------------|
|-------------------------------||o----3p2---2------------3p=2---2------|
|-------------------------------||--------------------------------------|
|-------------------------------||---0-----0---0---0-----------0---0----|


   +H.                        E    E
|---------------------------------12---|
|----------------------------13--------|
|-(11)---------------------------------|
|--------------------------------------|
|--------------------------------------|
|--------------------------------------|
|--------------------------------------|
|
|   PM--------------------------|
|   S  S S S S S S s S S S S  S S  E
|--------------------------------------|
|--------------------------------------|
|--------------------------------------|
|--------------------------------------|
|------3p2---2---------3p2----2--------|
|--------------------------------------|
|---0------0---0---0-------0----0------|


   +E     Q.            +E     Q        E
|-(12)------------------------------------|
|--------12------------(12)---------------|
|-----------------------------12-------11-|
|-----------------------------------------|
|-----------------------------------------|
|-----------------------------------------|
|-----------------------------------------|
|
|   PM-------------------------------|
|   S  S  S  S S S S s   S  S  S S S S  E
|-----------------------------------------|
|-----------------------------------------|
|-----------------------------------------|
|-----------------------------------------|
|------3p=2----2------------3p=2---2------|
|-----------------------------------------|
|---0--------0---0---0-----------0---0----|


   +H.                        E    E
|---------------------------------12--|
|----------------------------13-------|
|-(11)--------------------------------|
|-------------------------------------|
|-------------------------------------|
|-------------------------------------|
|-------------------------------------|
|
|   PM--------------------------|
|   S  S S S S S S s S S S S  S S  E
|-------------------------------------|
|-------------------------------------|
|-------------------------------------|
|-------------------------------------|
|------3p2---2---------3p2----2-------|
|-------------------------------------|
|---0------0---0---0-------0----0-----|


   +E     Q.            +E     Q        E
|-(12)------------------------------------|
|--------12------------(12)---------------|
|-----------------------------12-------11-|
|-----------------------------------------|
|-----------------------------------------|
|-----------------------------------------|
|-----------------------------------------|
|
|   PM-------------------------------|
|   S  S  S  S S S S s   S  S  S S S S  E
|-----------------------------------------|
|-----------------------------------------|
|-----------------------------------------|
|-----------------------------------------|
|------3p=2----2------------3p=2---2------|
|-----------------------------------------|
|---0--------0---0---0-----------0---0----|


   +H.                        E    E
|---------------------------------12--|
|----------------------------13-------|
|-(11)--------------------------------|
|-------------------------------------|
|-------------------------------------|
|-------------------------------------|
|-------------------------------------|
|
|   PM--------------------------|
|   S  S S S S S S s S S S S  S S  E
|-------------------------------------|
|-------------------------------------|
|-------------------------------------|
|-------------------------------------|
|------3p2---2---------3p2----2-------|
|-------------------------------------|
|---0------0---0---0-------0----0-----|


   +E     Q.            +E     Q        E
|-(12)------------------------------------|
|--------12------------(12)---------------|
|-----------------------------12-------11-|
|-----------------------------------------|
|-----------------------------------------|
|-----------------------------------------|
|-----------------------------------------|
|
|   PM-------------------------------|
|   S  S  S  S S S S s   S  S  S S S S  E
|-----------------------------------------|
|-----------------------------------------|
|-----------------------------------------|
|-----------------------------------------|
|------3p=2----2------------3p=2---2------|
|-----------------------------------------|
|---0--------0---0---0-----------0---0----|


   +H.                        E    E
|---------------------------------12--|
|----------------------------13-------|
|-(11)--------------------------------|
|-------------------------------------|
|-------------------------------------|
|-------------------------------------|
|-------------------------------------|
|
|   PM--------------------------|
|   S  S S S S S S s S S S S  S S  E
|-------------------------------------|
|-------------------------------------|
|-------------------------------------|
|-------------------------------------|
|------3p2---2---------3p2----2-------|
|-------------------------------------|
|---0------0---0---0-------0----0-----|


   +E     Q.            +E     Q        E
|-(12)------------------------------------|
|--------12------------(12)---------------|
|-----------------------------12-------11-|
|-----------------------------------------|
|-----------------------------------------|
|-----------------------------------------|
|-----------------------------------------|
|
|   PM-------------------------------|
|   S  S  S  S S S S s   S  S  S S S S  E
|-----------------------------------------|
|-----------------------------------------|
|-----------------------------------------|
|-----------------------------------------|
|------3p=2----2------------3p=2---2------|
|-----------------------------------------|
|---0--------0---0---0-----------0---0----|


   +H.                        E    E
|---------------------------------12--|
|----------------------------13-------|
|-(11)--------------------------------|
|-------------------------------------|
|-------------------------------------|
|-------------------------------------|
|-------------------------------------|
|
|   PM--------------------------|
|   S  S S S S S S s S S S S  S S  E
|-------------------------------------|
|-------------------------------------|
|-------------------------------------|
|-------------------------------------|
|------3p2---2---------3p2----2-------|
|-------------------------------------|
|---0------0---0---0-------0----0-----|


   +E     Q.            +E     Q        E
|-(12)------------------------------------|
|--------12------------(12)---------------|
|-----------------------------12-------11-|
|-----------------------------------------|
|-----------------------------------------|
|-----------------------------------------|
|-----------------------------------------|
|
|   PM-------------------------------|
|   S  S  S  S S S S s   S  S  S S S S  E
|-----------------------------------------|
|-----------------------------------------|
|-----------------------------------------|
|-----------------------------------------|
|------3p=2----2------------3p=2---2------|
|-----------------------------------------|
|---0--------0---0---0-----------0---0----|


   +H                 +E     E    E    E
|-----------------------------------------|
|-----------------------------------------|
|-(11)---------------(11)---12------------|
|--------------------------------10-------|
|-------------------------------------14--|
|-----------------------------------------|
|-----------------------------------------|
|
|   PM------------------------------|
|   S  S S S S S S s   S  S  S S  S S  E
|-----------------------------------------|
|-----------------------------------------|
|-----------------------------------------|
|-----------------------------------------|
|------3p2---2------------3p=2----2-------|
|-----------------------------------------|
|---0------0---0---0-----------0----0-----|


   H                +E     Q        E
|-------------------------------------|
|-12---------------(12)---------------|
|-------------------------12-------11-|
|-------------------------------------|
|-------------------------------------|
|-------------------------------------|
|-------------------------------------|
|
|  PM----------------------------|
|  S S S S S S S s   S  S  S S S S  E
|-------------------------------------|
|-------------------------------------|
|-------------------------------------|
|-------------------------------------|
|----3p2---2------------3p=2---2------|
|-------------------------------------|
|--0-----0---0---0-----------0---0----|


   +H                 +E     E    E    E
|-----------------------------------------|
|-----------------------------------------|
|-(11)---------------(11)---12------------|
|--------------------------------10-------|
|-------------------------------------14--|
|-----------------------------------------|
|-----------------------------------------|
|
|   PM------------------------------|
|   S  S S S S S S s   S  S  S S  S S  E
|-----------------------------------------|
|-----------------------------------------|
|-----------------------------------------|
|-----------------------------------------|
|------3p2---2------------3p=2----2-------|
|-----------------------------------------|
|---0------0---0---0-----------0----0-----|


   H                +E     Q        E    +H.                       Q
|-------------------------------------|---------------------------------||
|-12---------------(12)---------------|---------------------------------||
|-------------------------12-------11-|-(11)----------------------------||
|-------------------------------------|---------------------------------||
|-------------------------------------|---------------------------------||
|-------------------------------------|---------------------------------||
|-------------------------------------|---------------------------------||
|
|  PM----------------------------|
|  S S S S S S S s   S  S  S S S S  E     S  S S S S S S s S S S S S E.
|-------------------------------------|---------------------------------||
|-------------------------------------|---------------------------------||
|-------------------------------------|---------------------------------||
|-------------------------------------|---------------------------------||
|----3p2---2------------3p=2---2------|------3p2---2---------3p2---x-3--||
|-------------------------------------|----------------------------x-3--||
|--0-----0---0---0-----------0---0----|---0------0---0---0-------0---1--||


 Chorus
  Gtrs I, II
  S S S S S S S s S S S S S  E.   S S S S S S S s S S S S S  E.
|-------------------------------|-------------------------------|
|-------------------------------|-------------------------------|
|-------------------------------|-------------------------------|
|-------------------------------|-------------------------------|
|---3p2---2---------3p2---x--3--|---3p2---2---------3p2---x--3--|
|-------------------------x--3--|-------------------------x--3--|
|-0-----0---0---0-------0-------|-0-----0---0---0-------0-------|
|
| Gtr III
|                            ~~~                             ~~~
| H               Q       S  E.   H               Q       S  E.
|-------------------------------|-------------------------------|
|---------------------------12--|---------------------------12--|
|---------------------------12--|---------------------------12--|
|-------------------------------|-------------------------------|
|-------------------------------|-------------------------------|
|-------------------------------|-------------------------------|
|-------------------------------|-------------------------------|


  S S S S S S S s S S S S S  E.   S S S S S S S s S S S S S  E.
|-------------------------------|-------------------------------|
|-------------------------------|-------------------------------|
|-------------------------------|-------------------------------|
|-------------------------------|-------------------------------|
|---3p2---2---------3p2---x--3--|---3p2---2---------3p2---x--3--|
|-------------------------x--3--|-------------------------x--3--|
|-0-----0---0---0-------0-------|-0-----0---0---0-------0-------|
|
|                            ~~~                             ~~~
| H               Q       S  E.   H               Q       S  E.
|-------------------------------|-------------------------------|
|---------------------------12--|---------------------------12--|
|---------------------------12--|---------------------------12--|
|-------------------------------|-------------------------------|
|-------------------------------|-------------------------------|
|-------------------------------|-------------------------------|
|-------------------------------|-------------------------------|


  S S S S S S S s S S S S S  E.   S S S S S S S s S S S S S  E.
|-------------------------------|-------------------------------|
|-------------------------------|-------------------------------|
|-------------------------------|-------------------------------|
|-------------------------------|-------------------------------|
|---3p2---2---------3p2---x--3--|---3p2---2---------3p2---x--3--|
|-------------------------x--3--|-------------------------x--3--|
|-0-----0---0---0-------0-------|-0-----0---0---0-------0-------|
|
|                            ~~~                             ~~~
| H               Q       S  E.   H               Q       S  E.
|-------------------------------|-------------------------------|
|---------------------------12--|---------------------------12--|
|---------------------------12--|---------------------------12--|
|-------------------------------|-------------------------------|
|-------------------------------|-------------------------------|
|-------------------------------|-------------------------------|
|-------------------------------|-------------------------------|


  S S S S S S S s S S S S S  E.   S S S S S S S s S S S S S  E.
|-------------------------------|-------------------------------||
|-------------------------------|-------------------------------||
|-------------------------------|-------------------------------||
|-------------------------------|-------------------------------||
|---3p2---2---------3p2---x--3--|---3p2---2---------3p2---x--3--||
|-------------------------x--3--|-------------------------x--3--||
|-0-----0---0---0-------0-------|-0-----0---0---0-------0-------||
|
|                            ~~~                             ~~~
| H               Q       S  E.   H               Q       S  E.
|-------------------------------|-------------------------------||
|---------------------------12--|---------------------------12--||
|---------------------------12--|---------------------------12--||
|-------------------------------|-------------------------------||
|-------------------------------|-------------------------------||
|-------------------------------|-------------------------------||
|-------------------------------|-------------------------------||


 Bridge
  Gtr II
   E  S S  E  E +S      S S S E S S   E  E E E +S  S S S E S S
|--7--7-7--7--5-(5)-----5-5-5-5-5-5-|-7--8-5-7-(7)-7-7-7-7-7-7-|
|-----------------------------------|--------------------------|
|--4--4-4--4--2-(2)-----2-2-2-2-2-2-|-4--5-2-4-(4)-4-4-4-4-4-4-|
|-----------------------------------|--------------------------|
|-----------------------------------|--------------------------|
|-----------------------------------|--------------------------|
|-----------------------------------|--------------------------|
|
| Gtr I
|  E.   S +E  E +H                    Q.     E +H
|-----------------------------------|--------------------------|
|-----------------------------------|--------------------------|
|-----------------------------------|--------------------------|
|-------------6-(6)b6.5-------------|--------------------------|
|-/7----6-(6)-0---------------------|-3------2-(2)-------------|
|-----------------------------------|-3------2-(2)-------------|
|-----------------------------------|-1------0-(0)-------------|


  Gtr II
   E  S S  E  E +S      S S S E S S   E  E E E +S  S S S E S S
|--7--7-7--7--5-(5)-----5-5-5-5-5-5-|-7--8-5-7-(7)-7-7-7-7-7-7-|
|-----------------------------------|--------------------------|
|--4--4-4--4--2-(2)-----2-2-2-2-2-2-|-4--5-2-4-(4)-4-4-4-4-4-4-|
|-----------------------------------|--------------------------|
|-----------------------------------|--------------------------|
|-----------------------------------|--------------------------|
|-----------------------------------|--------------------------|
|
| Gtr I
|  E.   S +E  E +H                    Q.     E +H
|-----------------------------------|--------------------------|
|-----------------------------------|--------------------------|
|-------------1-(1)b1.5-------------|--------------------------|
|-----------------------------------|--------------------------|
|-/7----6-(6)-1---------------------|-3------2-(2)-------------|
|-----------------------------------|-3------2-(2)-------------|
|-----------------------------------|-1------0-(0)-------------|


  Gtr II
   E  S S  E  E +S      S S S E S S   E  E E E +S  S S S E S S
|--7--7-7--7--5-(5)-----5-5-5-5-5-5-|-7--8-5-7-(7)-7-7-7-7-7-7-|
|-----------------------------------|--------------------------|
|--4--4-4--4--2-(2)-----2-2-2-2-2-2-|-4--5-2-4-(4)-4-4-4-4-4-4-|
|-----------------------------------|--------------------------|
|-----------------------------------|--------------------------|
|-----------------------------------|--------------------------|
|-----------------------------------|--------------------------|
|
| Gtr I
|  E.   S +E  E +H                    Q.     E +H
|-----------------------------------|--------------------------|
|-----------------------------------|--------------------------|
|-------------1-(1)b1.5-------------|--------------------------|
|-----------------------------------|--------------------------|
|-/7----6-(6)-0---------------------|-3------2-(2)-------------|
|-----------------------------------|-3------2-(2)-------------|
|-----------------------------------|-1------0-(0)-------------|


  Gtr II
   E  S S  E  E +S      S S S E S S   E  E E E +S  S S S E S S
|--7--7-7--7--5-(5)-----5-5-5-5-5-5-|-7--8-5-7-(7)-7-7-7-7-7-7-|
|-----------------------------------|--------------------------|
|--4--4-4--4--2-(2)-----2-2-2-2-2-2-|-4--5-2-4-(4)-4-4-4-4-4-4-|
|-----------------------------------|--------------------------|
|-----------------------------------|--------------------------|
|-----------------------------------|--------------------------|
|-----------------------------------|--------------------------|
|
| Gtr I
|  E.   S +E  E +H                    Q.     E +H
|-----------------------------------|--------------------------|
|-----------------------------------|--------------------------|
|-------------1-(1)b1.5-------------|--------------------------|
|-----------------------------------|--------------------------|
|-/7----6-(6)-1---------------------|-3------2-(2)-------------|
|-----------------------------------|-3------2-(2)-------------|
|-----------------------------------|-1------0-(0)-------------|


  1.
  Gtr III                      Gtr
  S S S S S S S S S S S S S E.
|-------------------------------||
|-------------------------------||
|------------------------------o||
|-------------------------------||
|---3p2---2---------3p2---2h3--o||
|-------------------------------||
|-0-----0---0---0-------0-------||
|
|                              Gtr
| W
|-------------------------------||
|-------------------------------||
|------------------------------o||
|-------------------------------||
|------------------------------o||
|-------------------------------||
|-------------------------------||


 2.
  I
                                              ~~
  S       S   S  S S S S S S       S   S  S S E.
|-------------------------------------------------|
|-------------------------------------------------|
|---------5p==4----4---------------5p==4----4-5---|
|-------------------------------------------------|
|-2--------------2---2---2----------------2-------|
|-------------------------------------------------|
|-------------------------------------------------|
|
| II
| S a    +S  +S  S S E   S S a    +S  +S  S S E.
|-------------------------------------------------|
|-------------------------------------------------|
|---4b5==(4)r(4)-4-4-4---4---4b5==(4)r(4)-4-4-5---|
|-------------------------------------------------|
|-------------------------------------------------|
|-------------------------------------------------|
|-------------------------------------------------|


                                              ~~
  S       S   S  S S S S S S       S   S  S S E.
|------------------------------------------------|
|------------------------------------------------|
|---------5p==4----4---------------5p==4----4-5--|
|------------------------------------------------|
|-2--------------2---2---2----------------2------|
|------------------------------------------------|
|------------------------------------------------|
|
| S a    +S  +S  S S E   S S a    +S  +S  S S E.
|------------------------------------------------|
|------------------------------------------------|
|---4b5==(4)r(4)-4-4-4---4---4b5==(4)r(4)-4-4-5--|
|------------------------------------------------|
|------------------------------------------------|
|------------------------------------------------|
|------------------------------------------------|


                                              ~~
  S       S   S  S S S S S S       S   S  S S E.
|------------------------------------------------|
|------------------------------------------------|
|---------5p==4----4---------------5p==4----4-5--|
|------------------------------------------------|
|-2--------------2---2---2----------------2------|
|------------------------------------------------|
|------------------------------------------------|
|
| S a    +S  +S  S S E   S S a    +S  +S  S S E.
|------------------------------------------------|
|------------------------------------------------|
|---4b5==(4)r(4)-4-4-4---4---4b5==(4)r(4)-4-4-5--|
|------------------------------------------------|
|------------------------------------------------|
|------------------------------------------------|
|------------------------------------------------|


                                              ~~
  S       S   S  S S S S S S       S   S  S S E.
|------------------------------------------------|
|------------------------------------------------|
|---------5p==4----4---------------5p==4----4-5--|
|------------------------------------------------|
|-2--------------2---2---2----------------2------|
|------------------------------------------------|
|------------------------------------------------|
|
| S a    +S  +S  S S E   S S a    +S  +S  S S E.
|------------------------------------------------|
|------------------------------------------------|
|---4b5==(4)r(4)-4-4-4---4---4b5==(4)r(4)-4-4-5--|
|------------------------------------------------|
|------------------------------------------------|
|------------------------------------------------|
|------------------------------------------------|


                                              ~~
  S       S   S  S S S S S S       S   S  S S E.
|------------------------------------------------|
|------------------------------------------------|
|---------5p==4----4---------------5p==4----4-5--|
|------------------------------------------------|
|-2--------------2---2---2----------------2------|
|------------------------------------------------|
|------------------------------------------------|
|
| S a    +S  +S  S S E   S S a    +S  +S  S S E.
|------------------------------------------------|
|------------------------------------------------|
|---4b5==(4)r(4)-4-4-4---4---4b5==(4)r(4)-4-4-5--|
|------------------------------------------------|
|------------------------------------------------|
|------------------------------------------------|
|------------------------------------------------|


                                              ~~
  S       S   S  S S S S S S       S   S  S S E.
|------------------------------------------------|
|------------------------------------------------|
|---------5p==4----4---------------5p==4----4-5--|
|------------------------------------------------|
|-2--------------2---2---2----------------2------|
|------------------------------------------------|
|------------------------------------------------|
|
| S a    +S  +S  S S E   S S a    +S  +S  S S E.
|------------------------------------------------|
|------------------------------------------------|
|---4b5==(4)r(4)-4-4-4---4---4b5==(4)r(4)-4-4-5--|
|------------------------------------------------|
|------------------------------------------------|
|------------------------------------------------|
|------------------------------------------------|


                                              ~~
  S       S   S  S S S S S S       S   S  S S E.
|------------------------------------------------|
|------------------------------------------------|
|---------5p==4----4---------------5p==4----4-5--|
|------------------------------------------------|
|-2--------------2---2---2----------------2------|
|------------------------------------------------|
|------------------------------------------------|
|
| S a    +S  +S  S S E   S S a    +S  +S  S S E.
|------------------------------------------------|
|------------------------------------------------|
|---4b5==(4)r(4)-4-4-4---4---4b5==(4)r(4)-4-4-5--|
|------------------------------------------------|
|------------------------------------------------|
|------------------------------------------------|
|------------------------------------------------|


                                              ~~
  S       S   S  S S S S S S       S   S  S S E.
|------------------------------------------------|
|------------------------------------------------|
|---------5p==4----4---------------5p==4----4-5--|
|------------------------------------------------|
|-2--------------2---2---2----------------2------|
|------------------------------------------------|
|------------------------------------------------|
|
| S a    +S  +S  S S E   S S a    +S  +S  S S E.
|------------------------------------------------|
|------------------------------------------------|
|---4b5==(4)r(4)-4-4-4---4---4b5==(4)r(4)-4-4-5--|
|------------------------------------------------|
|------------------------------------------------|
|------------------------------------------------|
|------------------------------------------------|


                                              ~~
  S       S   S  S S S S S S       S   S  S S E.
|------------------------------------------------|
|------------------------------------------------|
|---------5p==4----4---------------5p==4----4-5--|
|------------------------------------------------|
|-2--------------2---2---2----------------2------|
|------------------------------------------------|
|------------------------------------------------|
|
| S a    +S  +S  S S E   S S a    +S  +S  S S E.
|------------------------------------------------|
|------------------------------------------------|
|---4b5==(4)r(4)-4-4-4---4---4b5==(4)r(4)-4-4-5--|
|------------------------------------------------|
|------------------------------------------------|
|------------------------------------------------|
|------------------------------------------------|


                                              ~~
  S       S   S  S S S S S S       S   S  S S E.
|------------------------------------------------|
|------------------------------------------------|
|---------5p==4----4---------------5p==4----4-5--|
|------------------------------------------------|
|-2--------------2---2---2----------------2------|
|------------------------------------------------|
|------------------------------------------------|
|
| S a    +S  +S  S S E   S S a    +S  +S  S S E.
|------------------------------------------------|
|------------------------------------------------|
|---4b5==(4)r(4)-4-4-4---4---4b5==(4)r(4)-4-4-5--|
|------------------------------------------------|
|------------------------------------------------|
|------------------------------------------------|
|------------------------------------------------|
|
| Gtr III
| W
|------------------------------------------------|
|------------------------------------------------|
|------------------------------------------------|
|------------------------------------------------|
|------------------------------------------------|
|------------------------------------------------|
|------------------------------------------------|


                                               ~~~
  S       S   S  S S S S S S       S   S  S S  E.
|-------------------------------------------------||
|-------------------------------------------------||
|---------5p==4----4---------------5p==4----------||
|-------------------------------------------------||
|-2--------------2---2---2----------------2-x--3--||
|-------------------------------------------x--3--||
|----------------------------------------------1--||
|
| S a    +S  +S  S S E   S S a    +S  +S  S S  E.
|-------------------------------------------------||
|-------------------------------------------------||
|---4b5==(4)r(4)-4-4-4---4---4b5==(4)r(4)-4-4--5--||
|-------------------------------------------------||
|-------------------------------------------------||
|-------------------------------------------------||
|-------------------------------------------------||
|
|                                              ~~~
| H                        Q                S  E.
|-------------------------------------------------||
|---------------------------------------------12--||
|---------------------------------------------12--||
|-------------------------------------------------||
|-------------------------------------------------||
|-------------------------------------------------||
|-------------------------------------------------||


 Chorus
  Gtrs I, II
  S S S S S S S s S S S S S  E.   S S S S S S S s S S S S S  E.
|-------------------------------|-------------------------------|
|-------------------------------|-------------------------------|
|-------------------------------|-------------------------------|
|-------------------------------|-------------------------------|
|---3p2---2---------3p2---x--3--|---3p2---2---------3p2---x--3--|
|-------------------------x--3--|-------------------------x--3--|
|-0-----0---0---0-------0-------|-0-----0---0---0-------0-------|
|
| Gtr III
|                            ~~~                             ~~~
| H               Q       S  E.   H               Q       S  E.
|-------------------------------|-------------------------------|
|---------------------------12--|---------------------------12--|
|---------------------------12--|---------------------------12--|
|-------------------------------|-------------------------------|
|-------------------------------|-------------------------------|
|-------------------------------|-------------------------------|
|-------------------------------|-------------------------------|


  S S S S S S S s S S S S S  E.   S S S S S S S s S S S S S  E.
|-------------------------------|-------------------------------|
|-------------------------------|-------------------------------|
|-------------------------------|-------------------------------|
|-------------------------------|-------------------------------|
|---3p2---2---------3p2---x--3--|---3p2---2---------3p2---x--3--|
|-------------------------x--3--|-------------------------x--3--|
|-0-----0---0---0-------0-------|-0-----0---0---0-------0----1--|
|
|                            ~~~                             ~~~
| H               Q       S  E.   H               Q       S  E.
|-------------------------------|-------------------------------|
|---------------------------12--|---------------------------12--|
|---------------------------12--|---------------------------12--|
|-------------------------------|-------------------------------|
|-------------------------------|-------------------------------|
|-------------------------------|-------------------------------|
|-------------------------------|-------------------------------|


  S S S S S S S s S S S S S  E.   S S S S S S S s S S S S S  E.
|-------------------------------|-------------------------------|
|-------------------------------|-------------------------------|
|-------------------------------|-------------------------------|
|-------------------------------|-------------------------------|
|---3p2---2---------3p2---x--3--|---3p2---2---------3p2---x--3--|
|-------------------------x--3--|-------------------------x--3--|
|-0-----0---0---0-------0-------|-0-----0---0---0-------0-------|
|
|                            ~~~                             ~~~
| H               Q       S  E.   H               Q       S  E.
|-------------------------------|-------------------------------|
|---------------------------12--|---------------------------12--|
|---------------------------12--|---------------------------12--|
|-------------------------------|-------------------------------|
|-------------------------------|-------------------------------|
|-------------------------------|-------------------------------|
|-------------------------------|-------------------------------|


  S S S S S S S s S S S S S  E.   S S S S S S S s S S S S S  E.   W
|-------------------------------|-------------------------------|------*|
|-------------------------------|-------------------------------|------*|
|-------------------------------|-------------------------------|------*|
|-------------------------------|-------------------------------|------*|
|---3p2---2---------3p2---x--3--|---3p2---2---------3p2---x--3--|------*|
|-------------------------x--3--|-------------------------x--3--|------*|
|-0-----0---0---0-------0-------|-0-----0---0---0-------0----1--|------*|
|
|                            ~~~                             ~~~
| H               Q       S  E.   H               Q       S  E.   W
|-------------------------------|-------------------------------|------*|
|---------------------------12--|---------------------------12--|------*|
|---------------------------12--|---------------------------12--|------*|
|-------------------------------|-------------------------------|------*|
|-------------------------------|-------------------------------|------*|
|-------------------------------|-------------------------------|------*|
|-------------------------------|-------------------------------|------*|




--------------------------------------------------------------------------------


Duration Legend
---------------
W - whole; H - half; Q - quarter; E - 8th; S - 16th; T - 32nd; X - 64th; a - acciaccatura
+ - note tied to previous; . - note dotted; .. - note double dotted
Uncapitalized letters represent notes that are staccato (1/2 duration)
Irregular groupings are notated above the duration line
Duration letters will always appear directly above the note/fret number it represents the
duration for.  Duration letters with no fret number below them represent rests.  Multi-
bar rests are notated in the form Wxn, where n is the number of bars to rest for.  Low
melody durations appear below the staff

Tablature Legend
----------------
 h   - hammer-on
 p   - pull-off
 b   - bend
 pb  - pre-bend
 r   - bend release (if no number after the r, then release immediately)
 /\  - slide into or out of (from/to "nowhere")
 s   - legato slide
 S   - shift slide
 - natural harmonic
[n]  - artificial harmonic
n(n) - tapped harmonic
 ~   - vibrato
 tr  - trill
 T   - tap
 TP  - trem. picking
 PM  - palm muting
\n/  - tremolo bar dip; n = amount to dip
 \n  - tremolo bar down
 n/  - tremolo bar up
/n\  - tremolo bar inverted dip
 =   - hold bend; also acts as connecting device for hammers/pulls
 <> - volume swell (louder/softer)
 x   - on rhythm slash represents muted slash
 o   - on rhythm slash represents single note slash

Misc Legend
-----------
 |  - bar
||  - double bar
||o - repeat start
o|| - repeat end
*|  - double bar (ending)
 :  - bar (freetime)
 $  - Segno
 &  - Coda
Tempo markers -  = BPM(8/16=s8/s16), where s8 = swing 8ths, s16 = swing 16ths


            
            
Suggest correction
Creating personal tab
Creating personal tab
You can edit any tab online and save it as your Personal.

You can edit, replace or remove any tab part or add personal notes – all changes will be seen only by you.

Personal tabs can be accessed anytime from any device, even offline.
Learn more »
Give kudos to tab author, rate the tab!
1 2 3 4 5
comments
print report bad tab
guest
You may want to rate the tab now too:
select rating
Wanna post a correction for this tab? Suggest correction