Oops, an error
Loading. Please wait.

Layla tab

version 3
version 3

Whole song

by Korn
793 views 1 this week
no commentswrite comment
1 2 3 4 5
3 more votes to show rating
add to favorites
×
Save as Personal and add changes to this tab that will be seen only by you. Learn more ›
×
You can save this tab as Personal to edit and correct it or add notes. All changes will be seen only by you. Learn more »
launch autoscroll
font size
0
reset
how to read this tab
guitar tuner
edit
Autoscroll
slow
fast
+/-
esc
set tempo
stop
Author
Tabbed by Exacerbate/Sean H.
Tuning(ADGCFAD)
Sorry for going into such elaborate detail on which part is which.

First part (BOOM BOOM BOOM BOOM)
D|---------------------------------------|
A|-8----------------------13-------------|
F|-11---------------------16-------------|
C|---------------------------------------|
G|---------------------------------------|
D|---------------------------------------|
A|---------------------------------------|

Second part (Da da da da, da da da da, da da da, da da da da, dum dum dum)
D|-----------------------------------------------------|
A|-----------------------------------------------------|
F|-----------------------------------------------------|
C|-----------------------------------------------------|
G|-----------------------------------------------------|
D|-3-3-3-3--3-3-3-3--3-3-3--3-3-3-3--3-3-3-3---6--5--4-|
A|-1-1-1-1--1-1-1-1--1-1-1--1-1-1-1--1-1-1-1---4--3--2-|

Second part and a half(Right before it leads into the third part)
D|-----------------------------------------------------|
A|-----------------------------------------------------|
F|-----------------------------------------------------|
C|-----------------------------------------------------|
G|-----------------------------------------------------|
D|-3-3-3-3--3-3-3-3--3-3-3--3-3-3-3--3-3-3-3---6--5----|
A|-1-1-1-1--1-1-1-1--1-1-1--1-1-1-1--1-1-1-1---4--3----|

Third Part(Bend these strings while impersonating Michael J. Fox aka shake your finger 
and down)
D|--14^---------------14^------------14^-|
A|---------------------------------------|
F|---------------------------------------|
C|---------------------------------------|
G|---------------------------------------|
D|---------------------------------------|
A|---------------------------------------|

Fourth Part(HATE AND PAIN AND RAGE I FEELish part)
When this part leads into the Michael J. Fox riff, play the 6/4 cord twice
while heavily palm muted(this will make sense when listening to the song.
D|---------------------------------------|
A|---------------------------------------|
F|---------------------------------------|
C|---------------------------------------|
G|---------------------------------------|
D|--6-----6/5-------6----6------6/5------|
A|--4-0-0-4/3-0--0--4-0--4--0-0-4/3------|

Fifth Part(Don don, dun DON......)
D|---------------------------------------|
A|---------------------------------------|
F|---------------------------------------|
C|---------------------------------------|
G|---------------------------------------|
D|-3-3-------3----3----------------------|
A|-1-1-------1----1----------------------|

Sixth Part(Don don, dun DON......DEEEEEE DONNN)
D|---------------------------------------|
A|---------------------------------------|
F|---------------------------------------|
C|---------------------5-------4---------|
G|---------------------3-------2---------|
D|-3-3-------3---3-----------------------|
A|-1-1-------1---1-----------------------|


...Listen carefully to the song to learn to play it right, but these are the notes.

            
            
Suggest correction
Creating personal tab
Creating personal tab
You can edit any tab online and save it as your Personal.

You can edit, replace or remove any tab part or add personal notes – all changes will be seen only by you.

Personal tabs can be accessed anytime from any device, even offline.
Learn more »
Give kudos to tab author, rate the tab!
1 2 3 4 5
comments
print report bad tab
guest
You may want to rate the tab now too:
select rating
Wanna post a correction for this tab? Suggest correction