Oops, an error
Loading. Please wait.

Oildale Leave Me Alone tab

version 2
version 2

Whole song

Interactive

by Korn
6,548 views 3 this week
1 commentread comment
1 2 3 4 5
x 3
add to favorites
×
Save as Personal and add changes to this tab that will be seen only by you. Learn more ›
×
You can save this tab as Personal to edit and correct it or add notes. All changes will be seen only by you. Learn more »
launch autoscroll
font size
0
reset
how to read this tab
guitar tuner
backing track
0:00
0:00
edit
Autoscroll
slow
fast
+/-
esc
set tempo
stop
Difficulty
-------------------------------------------------------------------------------
                         Oildale (Leave Me Alone) - Korn
-------------------------------------------------------------------------------
Tabbed by: FRr3AkOnALEaSh
Email: smokin_05@hotmail.com

Tuning: A D G C F a d (7 String)

Intro
D|---------------------------------------------------------------------------|
A|---------------------------------------------------------------------------|
F|---------------------------------------------------------------------------|
C|---------------------------------------------------------------------------|
G|---------------------------------------------------------------------------|
D|---------------------------------------------------------------------------|
A|--0h3-3-3-3---0h3-3-3-3---0h3-3-3-3--4-4\1---------------------------------| x2

D|---------------------------------------------------------------------------|
A|---------------------------------------------------------------------------|
F|---------------------------------------------------------------------------|
C|---------------------------------------------------------------------------|
G|---------------------------------------------------------------------------|
D|---------------------------------------------------------------------------|
A|--3h6-6-6-6---3h6-6-6-6---3h5-5-5-5---3h5-5-5-5----------------------------| 

D|---------------------------------------------------------------------------|
A|---------------------------------------------------------------------------|
F|---------------------------------------------------------------------------|
C|---------------------------------------------------------------------------|
G|---------------------------------------------------------------------------|
D|---------------------------------------------------------------------------|
A|--0h3-3-3-3---0h3-3-3-3---0h3-3-3-3----------------------------------------| 

Verse
D|---------------------------------------------------------------------------|
A|---------------------------------------------------------------------------|
F|---------------------------------------------------------------------------|
C|---------------------------------------------------------------------------|
G|---------------------------------------------------------------------------|
D|---------------------------------------------------------------------------|
A|--4\1/3~----1~----3~----1~----3~----1~----3~----1~-------------------------|

D|---------------------------------------------------------------------------|
A|---------------------------------------------------------------------------|
F|---------------------------------------------------------------------------|
C|---------------------------------------------------------------------------|
G|---------------------------------------------------------------------------|
D|---------------------------------------------------------------------------|
A|--8p6-6-8p6---8p6-6-8p6---7p5-5-7p5---7p5-5-7p5----------------------------| x2

Chorus
D|---------------------------------------------------------------------------|
A|---------------------------------------------------------------------------|
F|---------------------------------------------------------------------------|
C|---------------------------------------------------------------------------|
G|---------------------------------------------------------------------------|
D|---------------------------------------------------------------------------|
A|--0h3-3-3-3---0h3-3-3-3---0h3-3-3-3--4-4\1---------------------------------| x2

D|---------------------------------------------------------------------------|
A|---------------------------------------------------------------------------|
F|---------------------------------------------------------------------------|
C|---------------------------------------------------------------------------|
G|---------------------------------------------------------------------------|
D|---------------------------------------------------------------------------|
A|--3h6-6-6-6---3h6-6-6-6---3h5-5-5-5---3h5-5-5-5----------------------------| x1

D|---------------------------------------------------------------------------|
A|---------------------------------------------------------------------------|
F|---------------------------------------------------------------------------|
C|---------------------------------------------------------------------------|
G|---------------------------------------------------------------------------|
D|---------------------------------------------------------------------------|
A|--0h3-3-3-3---0h3-3-3-3---0h3-3-3-3--4-4\1---------------------------------| x1

D|---------------------------------------------------------------------------|
A|---------------------------------------------------------------------------|
F|---------------------------------------------------------------------------|
C|---------------------------------------------------------------------------|
G|---------------------------------------------------------------------------|
D|---------------------------------------------------------------------------|
A|--3h6-6-6-6---3h6-6-6-6---3h5-5-5-5---3h5-5-5-5----------------------------| x2

D|---------------------------------------------------------------------------|
A|---------------------------------------------------------------------------|
F|---------------------------------------------------------------------------|
C|---------------------------------------------------------------------------|
G|---------------------------------------------------------------------------|
D|---------------------------------------------------------------------------|
A|--0h3-3-3-3---0h3-3-3-3---0h3-3-3-3--4-4\1---------------------------------| x1

                             (Dont play this the second time around)
D|---------------------------------------------------------------------------|
A|---------------------------------------------------------------------------|
F|---------------------------------------------------------------------------|
C|---------------------------------------------------------------------------|
G|---------------------------------------------------------------------------|
D|---------------------------------------------------------------------------|
A|--0h3-3-3-3---0h3-3-3-3---0h3-3-3-3----------------------------------------|

Breakdown
D|---------------------------------------------------------------------------|
A|---------------------------------------------------------------------------|
F|---------------------------------------------------------------------------|
C|---------------------------------------------------------------------------|
G|---------------------------------------------------------------------------|
D|----5~-----5~-----5~-----4~------------------------------------------------|
A|--2-3~---2-3~---2-3~---2-2~------------------------------------------------|
    .      .      .      .
D|---------------------------------------------------------------------------|
A|---------------------------------------------------------------------------|
F|---------------------------------------------------------------------------|
C|---------------------------------------------------------------------------|
G|---------------------------------------------------------------------------|
D|--5-5-5-5--7-7-7-7--8-8-8-8--4-4-4-4---------------------------------------|
A|--3-3-3-3--5-5-5-5--6-6-6-6--2-2-2-2---------------------------------------|

D|---------------------------------------------------------------------------|
A|---------------------------------------------------------------------------|
F|---------------------------------------------------------------------------|
C|---------------------------------------------------------------------------|
G|---------------------------------------------------------------------------|
D|--4-4-4-4--5-5-5-5--7-7-7-7--8-8-8-8---------------------------------------|
A|--2-2-2-2--3-3-3-3--5-5-5-5--6-6-6-6---------------------------------------|

D|---------------------------------------------------------------------------|
A|---------------------------------------------------------------------------|
F|---------------------------------------------------------------------------|
C|---------------------------------------------------------------------------|
G|---------------------------------------------------------------------------|
D|----5~-----4~--------------------------------------------------------------|
A|--2-3~---2-2~--------------------------------------------------------------|
    .      .
Outro
D|---------------------------------------------------------------------------|
A|---------------------------------------------------------------------------|
F|---------------------------------------------------------------------------|
C|---------------------------------------------------------------------------|
G|---------------------------------------------------------------------------|
D|---------------------------------------------------------------------------|
A|--0h3-3-3-3---0h3-3-3-3---0h3-3-3-3--4-4\1---------------------------------| x4

D|---------------------------------------------------------------------------|
A|---------------------------------------------------------------------------|
F|---------------------------------------------------------------------------|
C|---------------------------------------------------------------------------|
G|---------------------------------------------------------------------------|
D|---------------------------------------------------------------------------|
A|--3h6-6-6-6---3h6-6-6-6---3h5-5-5-5---3h5-5-5-5----------------------------| x1

D|---------------------------------------------------------------------------|
A|---------------------------------------------------------------------------|
F|---------------------------------------------------------------------------|
C|---------------------------------------------------------------------------|
G|---------------------------------------------------------------------------|
D|---------------------------------------------------------------------------|
A|--0h3-3-3-3---0h3-3-3-3---0h3-3-3-3--4-4\1---------------------------------| x1

D|---------------------------------------------------------------------------|
A|---------------------------------------------------------------------------|
F|---------------------------------------------------------------------------|
C|---------------------------------------------------------------------------|
G|---------------------------------------------------------------------------|
D|---------------------------------------------------------------------------|
A|--3h6-6-6-6---3h6-6-6-6---3h5-5-5-5---3h5-5-5-5----------------------------| x2

D|---------------------------------------------------------------------------|
A|---------------------------------------------------------------------------|
F|---------------------------------------------------------------------------|
C|---------------------------------------------------------------------------|
G|---------------------------------------------------------------------------|
D|---------------------------------------------------------------------------|
A|--0h3-3-3-3---0h3-3-3-3---0h3-3-3-3--4-4\1---------------------------------| x1

D|---------------------------------------------------------------------------|
A|---------------------------------------------------------------------------|
F|---------------------------------------------------------------------------|
C|---------------------------------------------------------------------------|
G|---------------------------------------------------------------------------|
D|---------------------------------------------------------------------------|
A|--0h3-3-3-3--4-4-1----0h3-3-3-3--4-4-1-------------------------------------| x4

D|---------------------------------------------------------------------------|
A|---------------------------------------------------------------------------|
F|---------------------------------------------------------------------------|
C|---------------------------------------------------------------------------|
G|---------------------------------------------------------------------------|
D|---------------------------------------------------------------------------|
A|--0h3-3-3-3---0h3-3-3-3---0h3-3-3-3--4-4\1---------------------------------| x4

D|---------------------------------------------------------------------------|
A|---------------------------------------------------------------------------|
F|---------------------------------------------------------------------------|
C|---------------------------------------------------------------------------|
G|---------------------------------------------------------------------------|
D|---------------------------------------------------------------------------|
A|--0h3-3-3-3--4-4-1----0h3-3-3-3--4-4-1-------------------------------------| x2

D|---------------------------------------------------------------------------|
A|---------------------------------------------------------------------------|
F|---------------------------------------------------------------------------|
C|---------------------------------------------------------------------------|
G|---------------------------------------------------------------------------|
D|--4-4-4--------------------------------------------------------------------|
A|--2-2-2--------------------------------------------------------------------| x4
    . . .

Well there you go! This is my first tab so i hope you guys can understand it clearly. 
obviously by tabbing this by ear, i can't guarantee you 100% accuracy, but i can guarantee 
it sounds VERY close to the song, you be the judge. Peace!

************************************
| .   palm mute
| /   slide up
| \   slide down
| h   hammer-on
| p   pull-off
| ~   vibrato
| +   harmonic
| x   Mute note
| b   Bend
| pb  Pre-bend
| br  Bend release
| pbr Pre-bend release
| brb Bend release bend

************************************

            
            
Suggest correction
Creating personal tab
Creating personal tab
You can edit any tab online and save it as your Personal.

You can edit, replace or remove any tab part or add personal notes – all changes will be seen only by you.

Personal tabs can be accessed anytime from any device, even offline.
Learn more »
Give kudos to tab author, rate the tab!
1 2 3 4 5
comments
print report bad tab
1 comment total.
+1 reply
czgcaliber14 10 Jul 15, 2010 08:29 AM

This is a really easy way to play this song

guest
Wanna post a correction for this tab? Suggest correction