Oops, an error
Loading. Please wait.
We have an official Take Me tab made by UG professional guitarists. Check out the tab »
×

Take Me tab

by Korn
385 views 1 this week
no commentswrite comment
1 2 3 4 5
x 3
add to favorites
×
Save as Personal and add changes to this tab that will be seen only by you. Learn more ›
×
You can save this tab as Personal to edit and correct it or add notes. All changes will be seen only by you. Learn more »
launch autoscroll
font size
0
reset
how to read this tab
guitar tuner
edit
Autoscroll
slow
fast
+/-
esc
set tempo
stop
About this tab version
This a full and complete version. Was this info helpful? Yes No
Tabbed by JimBonJovi

This is Korn's 3rd single off of 'The Serenity of Suffering' album.

This is a complete tab.
As usual its played on a 7-string guitar but you can play it on a 6-string 
if you're comfortable tuning down a few steps.

Full Distortion!


Intro:
D|-----------------------------------------|
A|-----------------------------------------|
F|----16-16--16-16---16--16-16-16----------|
C|----15-15--15-15---15--15-15-15----------|
G|----14-14--14-14---14--14-14-14----------|
D|-----------------------------------------|
A|-----------------------------------------|x2

2nd Intro Part:
D|--------------------------------------------------------|-------|
A|--------------------------------------------------------|-------|
F|--------------------------------------------------------|--16---|
C|--------------------------------------------------------|--15---|
G|--------------------------------------------------------|--14---|
D|--------------------------------------------------------|-------|
A|-----0-0---0-0----0----0-0-0-----0-0---0-0----0---0-0-0-|-------|x2

Verse:
D|---------------------------------------------------------|-----------------------------|--------------|
A|---------------------------------------------------------|-----------------------------|--------------|
F|---------------------------------------------------------|-----------------------------|--------------|
C|---------------------------------------------------------|-----------------------------|--------------|
G|---------------------------------------------------------|-----------------------------|--------------|
D|---------------------------------------------------------|-----------------------------|--------------|
A|--0-0---0-0-0-0---0---0-0-0----0-0---0-0-0-0---0---0-0-0-|---3-3---3-3-3-3---3---3-3-3-|--1--1-1-1-1--|x2

Chorus:
D|-----------------|---------------------------|
A|-----------------|---------------------------|
F|-----------------|---------------------------|
C|-----------------|-------------------7-------|
G|---2----5---3----|-----2----5---3----7-------| 
D|---2----5---3----|-----2----5---3----5-------|
A|---0----3---1----|-----0----3---1------------|x2

  'Take Me!'            'Please Take Me!'

2nd Verse:
D|---------------------------------------------------------|-----------------------------|--------------|
A|---------------------------------------------------------|-----------------------------|--------------|
F|---------------------------------------------------------|-----------------------------|--------------|
C|---------------------------------------------------------|-----------------------------|--------------|
G|---------------------------------------------------------|-----------------------------|--------------|
D|---------------------------------------------------------|-----------------------------|--------------|
A|--0-0---0-0-0-0---0---0-0-0----0-0---0-0-0-0---0---0-0-0-|---3-3---3-3-3-3---3---3-3-3-|--1--1-1-1-1--|x2

2nd Chorus:
D|-----------------|---------------------------|
A|-----------------|---------------------------|
F|-----------------|---------------------------|
C|-----------------|-------------------7-------|
G|---2----5---3----|-----2----5---3----7-------| 
D|---2----5---3----|-----2----5---3----5-------|
A|---0----3---1----|-----0----3---1------------|x2

  'Take Me!'            'Please Take Me!'

Bridge:   There's a synth higher in the mix throughout this part.
D|--------------------|-----------------------|
A|--------------------|-----------------------|
F|--------------------|-----------------------|
C|--------------------|-----------------------|
G|--------------------|-----------------------|
D|--------------2-----|-3---------------------|
A|-1------3--4--------|-------4-----0---------| x2

Final time of Bridge riff:
D|---------------------------|-------------|
A|---------------------------|-------------|
F|---------------------------|-------------|
C|---------------------------|-------------|
G|---------------------------|-------------|
D|--------2------------2-----|--3----------|
A|--1-----------1------------|-------------|

Intro bit again:
D|-----------------------------------------|
A|-----------------------------------------|
F|----16-16--16-16---16--16-16-16----------|
C|----15-15--15-15---15--15-15-15----------|
G|----14-14--14-14---14--14-14-14----------|
D|-----------------------------------------|
A|-----------------------------------------|x2

Heavy 2nd Intro Part again:
D|--------------------------------------------------------|-------|
A|--------------------------------------------------------|-------|
F|--------------------------------------------------------|--16---|
C|--------------------------------------------------------|--15---|
G|--------------------------------------------------------|--14---|
D|--------------------------------------------------------|-------|
A|-----0-0---0-0----0----0-0-0-----0-0---0-0----0---0-0-0-|-------|x2
  'Go!'

3rd Chorus:
D|-----------------|---------------------------|
A|-----------------|---------------------------|
F|-----------------|---------------------------|
C|-----------------|-------------------7-------|
G|---2----5---3----|-----2----5---3----7-------| 
D|---2----5---3----|-----2----5---3----5-------|
A|---0----3---1----|-----0----3---1------------|x4

  'Take Me!'            'Please Take Me!'

On the fourth and final time, syncopate with the drums and hold note.
D|---------------------|
A|---------------------|
F|---------------------|
C|----------------7----|
G|--2----5---3----7----| 
D|--2----5---3----5----|
A|--0----3---1---------|

The End!
 
***********************************

| h   Hammer-on
| x   Dead note
| /   Slide-up
| pb  Pre-bend
| ~   Vibrato
| .   Staccato

***********************************

            
            
Suggest correction
Creating personal tab
Creating personal tab
You can edit any tab online and save it as your Personal.

You can edit, replace or remove any tab part or add personal notes – all changes will be seen only by you.

Personal tabs can be accessed anytime from any device, even offline.
Learn more »
Give kudos to tab author, rate the tab!
1 2 3 4 5
comments
print report bad tab
guest
You may want to rate the tab now too:
select rating
Wanna post a correction for this tab? Suggest correction