Oops, an error
Loading. Please wait.

Twisted Transistor tab

version 3
version 3
by Korn
27,815 views 12 this week
10 commentsread comments
1 2 3 4 5
x 6
add to favorites
×
Save as Personal and add changes to this tab that will be seen only by you. Learn more ›
×
You can save this tab as Personal to edit and correct it or add notes. All changes will be seen only by you. Learn more »
launch autoscroll
font size
0
reset
how to read this tab
guitar tuner
backing track
0:00
0:00
edit
Autoscroll
slow
fast
+/-
esc
set tempo
stop
Author
Band: Korn
Song: Twisted Transistor
Album: See You on the Other Side
Producer: EMI/Virgin Records
Tabber: iAmVincent

I wasn't satisfied with the current Twisted Transistor tabs, so I
whipped this one up.  I feel this one turned out pretty well, so
have fun playing it!

Main/Verse (Guitar 1)
d|------------------------------------|
a|------------------------------------|
F|------------------------------------|
C|------------------------------------|
G|-------5b6r5-----5-----------5-b----|
D|------------------------------------|
A|-3-3-3-------3-3-----3-3-3-3--------|
 PM.....       ...     .......

Verse (Guitar 2)
d|-------------------|
a|-------------------|
F|-------------------|
C|-------------------| (Listen very closely for this after the first chorus)
G|---5---5-5-----5---|
D|---5---5-5-----5---|
A|-3-3---3-3-----3---|
 PM.

Pre-Chorus A
d|------------------------------------------------|
a|------------------------------------------------|
F|------------------------------------------------|
C|---5-----6-----3-----3-----5-----6----3----3----|
G|---5-----6-----3-----3-----5-----6----3----3----|
D|---3-----4-----1-----1-----3-----4----1----1----|
A|-3-----3-----3-----3-----3-----3----------------|
 PM.     .     .     .     .     .
Pre-Chorus B
d|-------------|
a|-------------|
F|-------------|
C|-------------|
G|-5--6--7-----|
D|-5--6--7-----|
A|-3--4--5-----|

Bridge A
d|---------------------|
a|---------------------|
F|---------------------|
C|---------------------|
G|-5-5-5-5-4-4-3-------|
D|-5-5-5-5-4-4-3-------|
A|-3-3-3-3-2-2-1-------|

Fill
d|-----------------------|
a|-----------------------|
F|-----------------------|
C|-2-----/4--------------|
G|-----------------------|
D|-----------------------|
A|-----------------------|

Bridge B (Guitar 1)               Bridge B (Guitar 2)
d|----------------------------|   d|----/20---------------------|
a|----------------------------|   a|---------/20----------------|
F|----------------------------|   F|--------------/19-----------|
C|----------------------------|   C|-------------------/17------|
G|-5------------3-------------|   G|----------------------------|
D|-5------------3-------------|   D|----------------------------|
A|-3------------1-------------|   A|----------------------------|

Bridge C
d|-22-22-22-22------22-22-22-22-22-22--------22-22-22-22------22-22-22-22-22-22-----|
a|----------------------------------------------------------------------------------|
F|-------------19---------------------18-----------------19-------------------------|
C|----------------------------------------------------------------------------------|
G|----------------------------------------------------------------------------------|
D|----------------------------------------------------------------------------------|
A|----------------------------------------------------------------------------------|

Bridge D (Very unsure about this part)
d|----------------------------------------------------------------------|
a|----------------------------------------------------------------------|
F|----------------------------------------------------------------------|
C|-15-15--15-15-15-15-16-16-16-17--15-15--15-15-15-15-16-16-16-16-16-16-|
G|----------------------------------------------------------------------|
D|----------------------------------------------------------------------|
A|----------------------------------------------------------------------|

Bridge E
d|-22-22-22-22------22-22-22-22-22-22-----------------|
a|----------------------------------------------------|
F|-------------19---------------------18--------------|
C|----------------------------------------------------|
G|----------------------------------------------------|
D|----------------------------------------------------|
A|----------------------------------------------------|

Outro
d|---------------------|
a|---------------------|
F|---------------------|
C|---------------------|
G|-------5b6r5-----5---|
D|---------------------|
A|-3-3-3-------3-3-----|
 PM.....       ...

SONG ORDER
Main x8
Pre-Chorus A
Pre-Chorus B x4
Main x4
Verse x4 (Guitar 1 comes in after 2 times)
Pre-Chorus A
Per-Chorus B x4
Main x4
Bridge A x4
Fill
Bridge B
Bridge C
Bridge B
Bridge D
Bridge B
Bridge E
Pause
Main x3
Outro

If you have any questions about the tab you can email me at iAmVincent2@yahoo.com
or message iAmVincent2 on AIM.

            
            
Suggest correction
Creating personal tab
Creating personal tab
You can edit any tab online and save it as your Personal.

You can edit, replace or remove any tab part or add personal notes – all changes will be seen only by you.

Personal tabs can be accessed anytime from any device, even offline.
Learn more »
comments
print report bad tab
10 comments total. Showing first comments.
0 reply
Kornfist 20 Dec 01, 2005 02:39 PM

Intro riff is completely off. Munky does a chord and uses bends, not hammerons and pulloffs.

0 reply
iAmVincent 176 Dec 01, 2005 02:56 PM

i would like to point out that there is not one pulloff in this tab sir

+1 reply
iAmVincent 176 Dec 01, 2005 03:21 PM

after reviewing the song again, it does appear that i did make a mistake on the main riff. instead playing the 4th fret on the G string, one should instead play another palm muted 3rd fret on the A string. as for munky playing a chord on the main riff, i think you're just full of shit on that part sir

guest
You may want to rate the tab now too:
select rating
Wanna post a correction for this tab? Suggest correction