Oops, an error
Loading. Please wait.
We have an official Yall Want A Single tab made by UG professional guitarists. Check out the tab »
×
by Korn
44,328 views 42 this week
14 commentsread comments
1 2 3 4 5
x 19
add to favorites
×
Save as Personal and add changes to this tab that will be seen only by you. Learn more ›
×
You can save this tab as Personal to edit and correct it or add notes. All changes will be seen only by you. Learn more »
launch autoscroll
font size
0
reset
how to read this tab
guitar tuner
edit
Autoscroll
slow
fast
+/-
esc
set tempo
stop
Band:  KoRn
Song:  Yall Want A Single
Album: Take a Look In The Mirror
Tabbed By:  Gizzil (strng_slngr@hotmail.com)

Tuning: 7string down a step – ADGCFAD

Simple Song to play, just listen to the cd

    intro
D|-------------------------------------------------------------|
A|-------------------------------------------------------------|
F|-------------------------------------------------------------|
C|-------------------------------------------------------------|
G|-------------------------------------------------------------|
D|-------------------------------------------------------------|
A|-1--0-----------------1--0-----------------------------------|

    Main riff
D|-------------------------------------------------------------|
A|-------------------------------------------------------------|
F|-------------------------------------------------------------|
C|-------------------------------------------------------------|
G|----------------------rest----------------------rest---------|
D|-------------------------------------------------------------|
A|-1--0-3-3-3-3-3-1-0-1------1--0-3-3-3-3-3-1-0-1------1-------|

    Verse
D|-------------------------------------------------------------|
A|-------------------------------------------------------------|
F|-------------------------------------------------------------|
C|-------------------------------------------------------------|
G|-------------------------------------------------------------|
D|-2--2--2-22h3---2--2--2-22h3---2--2--2-22h3---2--2--2-22h3---|
A|-0--0--0—00h1---0--0--0-00h1---0--0--0-00h1---0--0--0-00h1---|

D|-------------------------------------------------------------|
A|-------------------------------------------------------------|
F|-------------------------------------------------------------|
C|-------------------------------------------------------------|
G|-2--2--2-22-4--------------2---------------------------------|
D|-0--0--0-00-2---5--5--5-55-0---------------------------------|
A|----------------3--3--3-33-----------------------------------|

    Chorus - (Play after the first line of verse before words kick in)
D|-------------------------------------------------------------|
A|-------------------------------------------------------------|
F|-------------------------------------------------------------|
C|------------------5-----5-4--5--7----------------------------|
G|-2------3/5-----2-5-----5-4--5--7----------------------------|
D|-2------3/5-----0-3-----3-2--3--5----------------------------|
A|-0------1/3--------------------------------------------------|


    Interlude                (fuck that shit) part
D|-------------------------------------------------------------|
A|-------------------------------------------------------------|
F|-------------------------------------------------------------|
C|---------------------------.--.--.---------------------------|
G|-2-----3-2-----3-2------2--3--3--3---------------------------|
D|-2-----3-2-----3-2------2--3--3--3---------------------------|
A|-0-----1-0-----1-0------0--1--1--1---------------------------|
    
    Heavy main riff     (during the long scream)
D|-------------------------------------------------------------|
A|-------------------------------------------------------------|
F|-------------------------------------------------------------|
C|-------------------rest----------------------rest------------|
G|-------------------------------------------------------------|
D|-2-5-5-5-5-5-3-2-3------3--2-5-5-5-5-5-3-2-3------3----------|
A|-0-3-3-3-3-3-1-0-1------1--0-3-3-3-3-3-1-0-1------1----------|

    Main Riff variation (play once and then end on previous riff)
D|-------------------------------------------------------------|
A|-------------------------------------------------------------|
F|-------------------------------------------------------------|
C|-------------------------------------------------------------|
G|--------------------rest-------------------rest--------------|
D|-------------------------------------------------------------|
A|--0-3-3-3-3-3-1-0-1------0-3-3-3-3-3-1-0-1-------------------|

D|-------------------------------------------------------------|
A|-------------------------------------------------------------|
F|-------------------------------------------------------------|
C|-------------------------------------------------------------|
G|--------------------rest-------------------rest--------------|
D|-------------------------------------------------------------|
A|----3-3-3-3-3-1-0-1------0-3-3-3-3-3-1-0-1-------------------|

            
            
Suggest correction
Creating personal tab
Creating personal tab
You can edit any tab online and save it as your Personal.

You can edit, replace or remove any tab part or add personal notes – all changes will be seen only by you.

Personal tabs can be accessed anytime from any device, even offline.
Learn more »
comments
print report bad tab
14 comments total. Showing first comments.
+1 reply
munkyman 491 Nov 21, 2003 07:00 PM

i hate people like you that go downloading all the bands new cd's and songs. i know you did because this tab was up for the 21st. oh well you are killing the music industry so i hope its worth it oh and nice tab lol!

0 reply
munkyman 491 Nov 21, 2003 07:00 PM

*before the 21st

0 reply
munkadunk 10 Apr 15, 2004 08:00 PM

play-1-0-3333-22-0-1----1-0-3333-2-0-1 4x instead of what your playing and instead of a full chord for the verse try playing
---1-0-0-0-00-1-0-0-0-00-1 instead,then right after that you play full chords and it gives it that extra punch.

sorry im not trying to knock your tab its actually very good compared
to the abombinations ive seen good work i thank you
MunkaDunk

guest
Wanna post a correction for this tab? Suggest correction