Oops, an error
Loading. Please wait.

Hay Algo Aqui Que Va Mal bass

by Kortatu
136 views 1 this week
no commentswrite comment
1 2 3 4 5
3 more votes to show rating
add to favorites
×
Save as Personal and add changes to this tab that will be seen only by you. Learn more ›
×
You can save this tab as Personal to edit and correct it or add notes. All changes will be seen only by you. Learn more »
launch autoscroll
font size
0
reset
guitar tuner
edit
Autoscroll
slow
fast
+/-
esc
set tempo
stop
Ahi va uno d los mejores temas d kortatu, k lo disfruten :D

G|----------------------------|
D|----------------------------|
A|-5--3---2--0---5--3--2--0---|
E|----------------------------|


[luego el bajo entra un poco mas tarde con esto]


G|-------------------------------------------------------------9/5--|
D|------------------------------------------------------------------|
A|-------------------------------5-5-5-----3-3-3-2-3-5---5-6-7------|
E|-11/8-7-8-7-5-7-5-3-3-3-3-3--3-------5-2-------------5------------|

 |-----5-5----------------------|
 |------------------------------|
 |-3-3-----3-5-5-5--------------|
 |-----------------7-8-7-5-7-5--|


"si alguna vez se te a ocurrido..."

G|--------------------------------------------9/5-|
D|------------------------------------------------|
A|--------------5-5-5-----3-3-3-2-3-5---5-6-7-----|
E|-3-3-3-3-3--3-------5-2-------------5-----------|

 |-----5-5----------------------|
 |------------------------------|
 |-3-3-----3-5-5-5--------------|
 |-----------------7-8-7-5-7-5--|


"Si no piensa cuando corrías..."

G|--------------------------------------------9/5-|
D|------------------------------------------------|
A|--------------5-5-5-----3-3-3-2-3-5---5-6-7-----|
E|-3-3-3-3-3--3-------5-2-------------5-----------|

 |-----5-5-----------|
 |-------------------|
 |-3-3-----3-5-5-5---|
 |-------------------|


"hay algo aki ke va maaal..."

G|-----------------------------------------|
D|-----4---5-5-5-5-7-4-----4-----------5-2-|
A|-5-5---5-------------5-5---5-3-3-3-3-----|  x4
E|-----------------------------------------|


G|----------------------------|
D|----------------------------|
A|-5--3---2--0---5--3--2--0---|
E|----------------------------|


"Tu imagen ya a nadie asusta..."

G|-----------------------------------------------9/5-|
D|-4/5-5-5-5-5---------------------------------------|
A|---------------5-5-5-5-----3-3-3-2-3-5---5-6-7-----|
E|-------------3---------5-2-------------5-----------|

 |-----5-5----------------------|
 |------------------------------|
 |-3-3-----3-5-5-5--------------|
 |-----------------7-8-7-5-7-5--|


"Ya no molestas ni a los viejos..."

G|----------------------------------------------9/5-|
D|--------------------------------------------------|
A|--------------5-5-5-5-----3-3-3-2-3-5---5-6-7-----|
E|-3-3-3-3-3--3---------5-2-------------5-----------|

 |-5-5-------------|
 |-----5-----------|
 |-------3-5-5-5---|
 |-----------------|


"hay algo aki ke va maaal..."

G|-----------------------------------------|
D|-----4---5-5-5-5-7-4-----4-----------5-2-|
A|-5-5---5-------------5-5---5-3-3-3-3-----|  x4
E|-----------------------------------------|


G|----------------------------|
D|----------------------------|
A|-5--3---2--0---5--3--2--0---|
E|----------------------------|


[punteo de guitarra, el bajo sigue con la estrofa]:

G|-----------------------------------------------9/5-|
D|-4/5-5-5-5-5---------------------------------------|
A|---------------5-5-5-5-----3-3-3-2-3-5---5-6-7-----|
E|-------------3---------5-2-------------5-----------|

 |-----5-5----------------------|
 |------------------------------|
 |-3-3-----3-5-5-5--------------|
 |-----------------7-8-7-5-7-5--|


G|----------------------------------------------9/5-|
D|--------------------------------------------------|
A|--------------5-5-5-5-----3-3-3-2-3-5---5-6-7-----|
E|-3-3-3-3-3--3---------5-2-------------5-----------|

 |-----5-5-----------|
 |-------------------|
 |-3-3-----3-5-5-5---|
 |-------------------|


"hay algo aki ke va maaal..."

G|-----------------------------------------|
D|-----4---5-5-5-5-7-4-----4-----------5-2-|
A|-5-5---5-------------5-5---5-3-3-3-3-----|  x4
E|-----------------------------------------|


G|----------------------------|
D|----------------------------|
A|-5--3---2--0---5--3--2--0---|
E|----------------------------|


"Ahora ya nada te importa..."

G|-----------------------------------------------9/5-|
D|-4/5-5-5-5-5---------------------------------------|
A|---------------5-5-5-5-----3-3-3-2-3-5---5-6-7-----|
E|-------------3---------5-2-------------5-----------|

 |-----5-5----------------------|
 |------------------------------|
 |-3-3-----3-5-5-5--------------|
 |-----------------7-8-7-5-7-5--|


"Bajo tierra en un agujero..."

G|----------------------------------------------9/5-|
D|--------------------------------------------------|
A|--------------5-5-5-5-----3-3-3-2-3-5---5-6-7-----|
E|-3-3-3-3-3--3---------5-2-------------5-----------|

 |-5-5----------|
 |-----5--------|
 |-------3-5----|
 |--------------|

[pausa corta]

"hay algo aki ke va maaal..."

G|---------------------------------|
D|-5-5-5-5-7-4-----4-----------5-2-|
A|-------------5-5---5-3-3-3-3-----|
E|---------------------------------|

G|-----------------------------------------|
D|-----4---5-5-5-5-7-4-----4-----------5-2-|
A|-5-5---5-------------5-5---5-3-3-3-3-----|  x3
E|-----------------------------------------|


G|----------------------------|
D|----------------------------|
A|-5--3---2--0---5--3--2--0---|
E|----------------------------|


G|----------------------|
D|-5-5------------------|
A|------5-5--3-3--5-5---| x2
E|----------------------|


G|----------------------------------------4-5-4-5-4-------|
D|-5-5-4-5-------------5-5-4-5----------------------5-4---|
A|---------5--3-5-6-5----------5--3-5-6-5-----------------|
E|--------------------------------------------------------|


Por caraculo88, alguna keja o lo k sea escribir a jomacavi@

P.D:Esta inacabado faltan algunos retokes en la parte final

            
            
Suggest correction
Creating personal tab
Creating personal tab
You can edit any tab online and save it as your Personal.

You can edit, replace or remove any tab part or add personal notes – all changes will be seen only by you.

Personal tabs can be accessed anytime from any device, even offline.
Learn more »
Give kudos to tab author, rate the tab!
1 2 3 4 5
comments
print report bad tab
guest
Wanna post a correction for this tab? Suggest correction