Oops, an error
Loading. Please wait.

Hotel Monbar bass

by Kortatu
158 views 3 this week
no commentswrite comment
1 2 3 4 5
2 more votes to show rating
add to favorites
×
Save as Personal and add changes to this tab that will be seen only by you. Learn more ›
×
You can save this tab as Personal to edit and correct it or add notes. All changes will be seen only by you. Learn more »
launch autoscroll
font size
0
reset
guitar tuner
edit
Autoscroll
slow
fast
+/-
esc
set tempo
stop
Bueno esta es mi primer tablatura espero que les guste.
solo tenes que oirla para sacar el ritmo

 INTRO
G|---------------------------
D|---------------------------
A|-------33333-00000-00000---
E|-11111---------------------

 RIFF 1
G|---------------------------------------------------
D|---------------------------------------------------
A|-------33333-00000-11111-55555-44444-00000---5---3- X4
E|-11111---------------------------------------------

 PUENTE 1
G|-------------------
D|-3---5--2----------
A|----------11111111- X2
E|-------------------

 RIFF 2
G|--------------------
D|-0000-----------3-2-
A|------0000-1111----- X4
E|--------------------

 RIFF 3
G|---------------------------
D|-000000000---0-------------
A|-----------3---111111111-3- X2
E|---------------------------

 PUENTE 2
G|---------------
D|-000000000---0-
A|-----------3---
E|---------------

 RIFF 4
G|----------------------------------
D|--------------------------------2-
A|-11111111-00000000-33333333---3--- X2
E|----------------------------------

 PUENTE 3
G|---------------------------------------------
D|---------------------------------------------
A|-11111111-33333333-00000000-00000000-00000000
E|---------------------------------------------

 Luego sigue una esacala mas o menos asi
G|-------2------
D|---2-3---2----
A|-1----------3-
E|--------------

luego se repite todo 2 veces, tocando el "RIFF 1" solo 2 veses.

La tercera ves que se toca todo empiesa igual pero cuando llega
a el "RIFF 2" este se repite 12 veses y luego esto...

G|----------------------
D|-0000-----------3-2-0-
A|------0000-1111-------
E|----------------------

confio mucho en que esta perfecta, pero cualkier duda
o comentario a juliosolisa@

            
            
Suggest correction
Creating personal tab
Creating personal tab
You can edit any tab online and save it as your Personal.

You can edit, replace or remove any tab part or add personal notes – all changes will be seen only by you.

Personal tabs can be accessed anytime from any device, even offline.
Learn more »
Give kudos to tab author, rate the tab!
1 2 3 4 5
comments
print report bad tab
guest
Wanna post a correction for this tab? Suggest correction