Oops, an error
Loading. Please wait.

Veri Valuu Maahan bass

version 1
version 1

Whole song

Interactive

486 views 1 this week
1 commentread comment
1 2 3 4 5
2 more votes to show rating
add to favorites
×
Save as Personal and add changes to this tab that will be seen only by you. Learn more ›
×
You can save this tab as Personal to edit and correct it or add notes. All changes will be seen only by you. Learn more »
launch autoscroll
font size
0
reset
guitar tuner
edit
Autoscroll
slow
fast
+/-
esc
set tempo
stop
Vire : (Normaali) E A D G - Selvitti : Henkka

  INTRO
G------------------------------------------------------------------------------|
D-------------------7---7----------7777666000----------------------------------|
A-4-4-4--4-4--4-4-4---4---4-4-4--4---------------------------------------------|
E------------------------------------------------------------------------------|

Kaatopaikat..
G------------------------------------------------------------------------------|
D------------------------------------------------------------------------------|
A-4-4-4--4-4--4--4-4-4--4-4--4-4-4--4-4-4-4------------------------------------|
E------------------------------------------------------------------------------|

KERTO SÄKEEN SOINNUT (Jokaista sointua väh. 10 kertaa)
G------------------------------------------------------------------------------|
D-4--2--6--5-------------------------------------------------------------------|
A------------------------------------------------------------------------------|
E------------------------------------------------------------------------------|

            
            
Suggest correction
Creating personal tab
Creating personal tab
You can edit any tab online and save it as your Personal.

You can edit, replace or remove any tab part or add personal notes – all changes will be seen only by you.

Personal tabs can be accessed anytime from any device, even offline.
Learn more »
Give kudos to tab author, rate the tab!
1 2 3 4 5
comments
print report bad tab
1 comment total.
+1 reply
XL135 1,042 Mar 28, 2008 11:53 AM

Kieltämättä... Tää o aika helppo ja hyvä.

guest
Wanna post a correction for this tab? Suggest correction