Oops, an error
Loading. Please wait.

Alles Wegen Dir tab

5,501 views 33 this week
2 commentsread comments
1 2 3 4 5
x 10
add to favorites
×
Save as Personal and add changes to this tab that will be seen only by you. Learn more ›
×
You can save this tab as Personal to edit and correct it or add notes. All changes will be seen only by you. Learn more »
launch autoscroll
font size
0
reset
how to read this tab
guitar tuner
edit
Autoscroll
slow
fast
+/-
esc
set tempo
stop
Author
Alles wegen dir

einfach die Chords als Powerchord spielen, dann passt das

[Intro/Verse]
e|---------------------------------------|
B|---------------------------------------|
G|---------12-12-12---10-10-10--12-12-12-|
D|-12-12---12-12-12---10-10-10--12-12-12-|
A|-12-12---10-10-10---8--8--8---10-10-10-|
E|-10-10---------------------------------| x5 Intro / 8x Verse

[Chorus]
e|--------------------------------------------------|
B|--------------------------------------------------|
G|-------------------------10-10-10-10-12-12-12-12--|
D|-12-12-12-12-10-10-10-10-10-10-10-10-12-12-12-12--|
A|-12-12-12-12-10-10-10-10-8--8--8--8--10-10-10-10--|
E|-10-10-10-10-8--8--8--8---------------------------| x4

[Verse]

[Chorus]
 
[Bridge] 4x genau wie Chorus
         2x Intro Riff

[Chorus]x2





tab by duncan.wick

            
            
Suggest correction
Creating personal tab
Creating personal tab
You can edit any tab online and save it as your Personal.

You can edit, replace or remove any tab part or add personal notes – all changes will be seen only by you.

Personal tabs can be accessed anytime from any device, even offline.
Learn more »
comments
print report bad tab
2 comments total.
0 reply
reichertmc 10 Feb 11, 2016 10:12 AM

Only power chords. Not actual chords.
So that's the reason. Come on guys

-1 reply
richardwieditz 10 May 03, 2017 06:42 PM

didn't like this contribution

guest
You may want to rate the tab now too:
select rating
Wanna post a correction for this tab? Suggest correction