Oops, an error
Loading. Please wait.

Blau tab

version 1
version 1

Whole song

5,627 views 27 this week
7 commentsread comments
1 2 3 4 5
x 6
add to favorites
×
Save as Personal and add changes to this tab that will be seen only by you. Learn more ›
×
You can save this tab as Personal to edit and correct it or add notes. All changes will be seen only by you. Learn more »
launch autoscroll
font size
0
reset
how to read this tab
guitar tuner
edit
Autoscroll
slow
fast
+/-
esc
set tempo
stop
Author
Blau

einfach die Chords als Powerchord spielen, dann passt das

[Intro/Verse/Chorus Riff]
  D        Gm
e|------------------------|
B|-----6------------------|
G|-------7---7------------|
D|---7-----5---6-6-7-6-7--|
A|-5----------------------|
E|------------------------|

["also nicht, dass mich das irgendwie beschäftigt"]
   D      D     D
e|-----5------5------5----------|
B|-----5------5------5----------|
G|-----7------7------7----------|
D|-----7------7------7--6-7-6-7-|
A|-5-5----5-5----5-5------------|
E|------------------------------|
   D     D       D
e|-----5------5------5----------|
B|-----5------5------5----------|
G|-----7------7------7----------|
D|-----7------7------7--7-6---6-|
A|-5-5----5-5----5-5--------7---|
E|------------------------------|

[Pre-Chorus]
   Gm                    F                       C                   F
      Denn je tiefer die Nacht, desto besser die Idee; Ich bin ein Genie.
e|-3---------------------1-----------------------3-------------------1-|
B|-3---------------------1-----------------------3-------------------1-|
G|-3---------------------2-----------------------5-------------------2-|
D|-5---------------------3-----------------------5-------------------3-|
A|-5---------------------3-----------------------3-------------------3-|
E|-3---------------------1-------------------------------------------1-|

   Gm                       Fm             C
       Und ich weiß, es ist ziemlich spät, Baby.
e|-3------------------------1--------------3-|
B|-3------------------------1--------------3-|
G|-3------------------------2--------------5-|
D|-5------------------------3--------------5-|
A|-5------------------------3--------------3-|
E|-3------------------------1----------------|



tab by duncan.wick

            
            
Suggest correction
Creating personal tab
Creating personal tab
You can edit any tab online and save it as your Personal.

You can edit, replace or remove any tab part or add personal notes – all changes will be seen only by you.

Personal tabs can be accessed anytime from any device, even offline.
Learn more »
comments
print report bad tab
7 comments total. Showing first comments.
0 reply
paulgmielke 34 Oct 06, 2014 09:33 AM

Tab incomplete. Clearly wrong. Well the Tab is incomplete and clearly wrong. What should I say? The pickings are wrong maybe I comment the right version

0 reply
JKlinghoffer 90 Jan 04, 2015 03:28 AM

Tab incomplete. I wouldnt say it's wrong in every way, but you need to tab a lot more! So many missing parts and especially chords

0 reply
mirundoshi 32 Jan 15, 2015 08:31 AM

Maybe you could look for my vesion /no. 2. This was my first time and maybe you could give me an advice or something ^^

guest
You may want to rate the tab now too:
select rating
Wanna post a correction for this tab? Suggest correction