Oops, an error
Loading. Please wait.

Gestern Nacht tab

1,166 views 6 this week
4 commentsread comments
1 2 3 4 5
x 5
add to favorites
×
Save as Personal and add changes to this tab that will be seen only by you. Learn more ›
×
You can save this tab as Personal to edit and correct it or add notes. All changes will be seen only by you. Learn more »
launch autoscroll
font size
0
reset
how to read this tab
guitar tuner
edit
Autoscroll
slow
fast
+/-
esc
set tempo
stop
Author
Gestern Nacht 

[Introriff]
e|------------------|
B|------------------|
G|-----------6--4-4-|
D|-----9-6---6--4-4-|
A|---------7--------|
E|-7-9--------------|

[Verse]
Introriff wird angespielt, aber nicht durchgezogen.
Dazu abwechselnd C# (X46644) und E (X79977)

[Gegröle]
e|---------------------|
B|---------------------|
G|---------------------|
D|-------6-------------|
A|---7-9------7-9-7----|
E|-9--------9--------9-|

[Chorus]
   C# E F# B
e|-4--7-9--2-|
B|-4--7-9--2-|
G|-6--9-11-4-|
D|-6--9-11-4-|
A|-4--7-9--2-|
E|-----------|

[Bridge]
   C# F# E B
e|-4--9--7-2-|
B|-4--9--7-2-|
G|-6--11-9-4-|
D|-6--11-9-4-|
A|-4--11-7-2-|
E|-----------|


tab by duncan.wick

            
            
Suggest correction
Creating personal tab
Creating personal tab
You can edit any tab online and save it as your Personal.

You can edit, replace or remove any tab part or add personal notes – all changes will be seen only by you.

Personal tabs can be accessed anytime from any device, even offline.
Learn more »
comments
print report bad tab
4 comments total. Showing first comments.
0 reply
nacphones 280 Oct 06, 2014 11:05 AM

Tab incomplete. I wouldn't call putting in two riffs and four power chords a tab when there's clearly much more variety to the guitar parts.

0 reply
duncan.wick 469 Mar 15, 2015 06:19 AM

there really isn't a lot of guitar variety.
added some info, better now

0 reply
JKlinghoffer 90 Feb 15, 2015 04:08 AM

Lack of accuracy. Tab incomplete. I agree you need to tab out a little bit more to call this a tab, however this tab could make it out of the queue..

guest
You may want to rate the tab now too:
select rating
Wanna post a correction for this tab? Suggest correction