Oops, an error
Loading. Please wait.

Unsere Fans bass

1,995 views 12 this week
1 commentread comment
1 2 3 4 5
1 last vote to show rating
add to favorites
×
Save as Personal and add changes to this tab that will be seen only by you. Learn more ›
×
You can save this tab as Personal to edit and correct it or add notes. All changes will be seen only by you. Learn more »
launch autoscroll
font size
0
reset
guitar tuner
edit
Autoscroll
slow
fast
+/-
esc
set tempo
stop
Author
Difficulty
-------------------------------------------------------------------------------
                             UNSERE FANS - Kraftklub
-------------------------------------------------------------------------------
Tabbed by: Paddde
E-mail: paddy_bullshit@hotmail.de

All tabbed by ear. Most of it should be correct.
Maybe some mistakes, when it comes to 7 or 8 picks, sorry for that.

Tuning: EADG

0:18 INTRO
G|----------------------------------------------------------------|
D|----------------------------------------------------------------|
A|--------3-5-5-5-4-3-3-3-3-3-3-3-5---------3-3-3-5---------------|
E|-5-5-5----------------------------1-1-1-1---------5-5-5-5-5-5-5-|

G|-------------------------------------------------------------------|
D|-------------------------------------------------------------------|
A|---------3-5-5-5-4-3-3-3-3-3-3-3-3-5/8-8-8-8-3-3-3-3---------------|
E|-3-5-5-5---------------------------------------------5-5-5-5-5-5-5-|

G|-----------------------------------------------------------------|
D|-----------------------------------------------------------------|
A|---------3-5-5-5-4-3-3-3-3-3-3-3-5---------3-3-3-5---------------|
E|-3-5-5-5---------------------------1-1-1-1---------5-5-5-5-5-5-5-|

G|---------------------------------------------------------------------|
D|---------------------------------------------------------------------|
A|---------3-5-5-5-4-3-3-3-3-3-3-3-3-5/8-8-8-8-3-3-3-3-----------------|
E|-3-5-5-5---------------------------------------------5-5-5-5-5-5-5-5-|

0:43 Verse
G|-------------------------------------------------------------|   \
D|-------------------------------------------------------------|    \
A|---------------------------------------3-3-3-5---------------|     \
E|-5-5p3-5-5-5p3-5-5-5p3-5-5-5p3-5-1-1-1---------5-5p3-5-5-5p3-|      \
                                                                        2x
G|---------------------------------------------------------------|    /
D|---------------------------------------------------------------|   /
A|-----------------------------------------3-3-3-----------------|  /
E|-5-5-5p3-5-5-5p3-5-5-5p3-5-5-5p3-5-1-1-1-------3-5-5p3-5-5-5p3-| /

1:07 Pre-Chorus
G|-----------------------------------------------------------------|  
D|-----------------------------------------------------------------|     
A|-------3-5-5-5-4-3-3-3-3-3-3-3-3---------3-3-3-5-----------------|    
E|-5-5-5---------------------------1-1-1-1---------5-5-5-5-5-5-5-5-|     
                                                                           
G|------------------------------------------------------------------|    
D|------------------------------------------------------------------|   
A|--------3-5-5-5-4-3-3-3-3-3-3-3-3---------3-3-3-------------------|  
E|-5-5-5----------------------------1-1-1-1-------3-5-5-5-5-5-5-5-5-| 

1:19 Chorus 
G|---------------------------------------------------------------|
D|---------------------------------------------------------------|
A|-------3-5-5-5-4-3-3-3-3-3-3-3-5---------3-3-3-5---------------|
E|-5-5-5---------------------------1-1-1-1---------5-5-5-5-5-5-5-|

G|-------------------------------------------------------------------|
D|-------------------------------------------------------------------|
A|---------3-5-5-5-4-3-3-3-3-3-3-3-3-5/8-8-8-8-3-3-3-3---------------|
E|-3-5-5-5---------------------------------------------5-5-5-5-5-5-5-|

G|-----------------------------------------------------------------|
D|-----------------------------------------------------------------|
A|---------3-5-5-5-4-3-3-3-3-3-3-3-5---------3-3-3-5---------------|
E|-3-5-5-5---------------------------1-1-1-1---------5-5-5-5-5-5-5-|

G|---------------------------------------------------------------------|
D|---------------------------------------------------------------------|
A|---------3-5-5-5-4-3-3-3-3-3-3-3-3-5/8-8-8-8-3-3-3-3-----------------|
E|-3-5-5-5---------------------------------------------5-5-5-5-5-5-5-5-|

1:43 Verse
G|-------------------------------------------------------------|   \
D|-------------------------------------------------------------|    \
A|---------------------------------------3-3-3-5---------------|     \
E|-5-5p3-5-5-5p3-5-5-5p3-5-5-5p3-5-1-1-1---------5-5p3-5-5-5p3-|      \
                                                                        2x
G|---------------------------------------------------------------|    /
D|---------------------------------------------------------------|   /
A|-----------------------------------------3-3-3-----------------|  /
E|-5-5-5p3-5-5-5p3-5-5-5p3-5-5-5p3-5-1-1-1-------3-5-5p3-5-5-5p3-| /

2:07 Pre-Chorus
G|-----------------------------------------------------------------| 
D|-----------------------------------------------------------------|    
A|-------3-5-5-5-4-3-3-3-3-3-3-3-3---------3-3-3-5-----------------|   
E|-5-5-5---------------------------1-1-1-1---------5-5-5-5-5-5-5-5-|    
                                                                          
G|-----------------------------------------------------------------|    
D|-----------------------------------------------------------------|   
A|-------3-5-5-5-4-3-3-3-3-3-3-3-3---------3-3-3-------------------|  
E|-5-5-5---------------------------1-1-1-1-------3-5-5-5-5-5-5-5-5-| 


2:19 Chorus 
G|---------------------------------------------------------------|
D|---------------------------------------------------------------|
A|-------3-5-5-5-4-3-3-3-3-3-3-3-5---------3-3-3-5---------------|
E|-5-5-5---------------------------1-1-1-1---------5-5-5-5-5-5-5-|

G|-------------------------------------------------------------------|
D|-------------------------------------------------------------------|
A|---------3-5-5-5-4-3-3-3-3-3-3-3-3-5/8-8-8-8-3-3-3-3---------------|
E|-3-5-5-5---------------------------------------------5-5-5-5-5-5-5-|

G|-----------------------------------------------------------------|
D|-----------------------------------------------------------------|
A|---------3-5-5-5-4-3-3-3-3-3-3-3-5---------3-3-3-5---------------|
E|-3-5-5-5---------------------------1-1-1-1---------5-5-5-5-5-5-5-|

G|---------------------------------------------------------------------|
D|---------------------------------------------------------------------|
A|---------3-5-5-5-4-3-3-3-3-3-3-3-3-5/8-8-8-8-3-3-3-3-----------------|
E|-3-5-5-5---------------------------------------------5-5-5-5-5-5-5-5-|


2:43 Bridge
G|-------------------------------------------------------------------------------------|
D|-------------------------------------------------------------------------------------|
A|-------------------------------------4-4-4-------------------------------------3-3-3-|
E|-3-5-5-----3-5-5-----3-5-5-----1-1-1-------3-5-5-----3-5-5-----3-5-5-----1-1-1-------|

G|-------------------------------------------------------------------------------------|
D|-------5-4-------3-2-----------------------------5-4-------3-2-----------------------|
A|---------------------------3-5-------4-4-4---------------------------3-5-------3-3-3-|
E|-3-5-5-----3-5-5-----3-5-5-----1-1-1-------3-5-5-----3-5-5-----3-5-5-----1-1-1-------|


3:08 Chorus
G|----------------------------------------------------------------|
D|----------------------------------------------------------------|    
A|-PAUSE-----------------------------------3-3-3-5----------------|
E|---------------------------------1-1-1-1---------5-5-5-5-5-5-5--|

G|-------------------------------------------------------------------|
D|-------------------------------------------------------------------|
A|---------3-5-5-5-4-3-3-3-3-3-3-3-3-5/8-8-8-8-3-3-3-3---------------|
E|-3-5-5-5---------------------------------------------5-5-5-5-5-5-5-|

G|---------------------------------------------------------------|
D|---------------------------------------------------------------|
A|-------3-5-5-5-4-3-3-3-3-3-3-3-5---------3-3-3-5---------------|
E|-5-5-5---------------------------1-1-1-1---------5-5-5-5-5-5-5-|

G|-------------------------------------------------------------------|
D|-------------------------------------------------------------------|
A|---------3-5-5-5-4-3-3-3-3-3-3-3-3-5/8-8-8-8-3-3-3-3---------------|
E|-3-5-5-5---------------------------------------------5-5-5-5-5-5-5-|

G|-----------------------------------------------------------------|
D|-5-7-7-7---------------------------3-3-3-3---------7-7-7-7-7-7-7-|    
A|---------3-5-5-5-4-3-3-3-3-3-3-3-5---------3-3-3-5---------------|
E|-----------------------------------------------------------------|

G|---------------------------------------------------------------------|
D|-5-7-7-7-------------------------------------------5-7-7-7-7-7-7-7-7-|    
A|---------3-5-5-5-4-3-3-3-3-3-3-3-3-5/8-8-8-8-3-3-3-------------------|
E|---------------------------------------------------------------------|

3:45 End
G|---------------------------|
D|---------------------------|    
A|-5/8-8-8-8-3-3-3-----------|
E|-----------------3-5-5-3-5-|



| /  slide up
| \  slide down
| h  hammer-on
| p  pull-off
| ~  vibrato
| +  harmonic
| x  Mute note
===============================================================================

            
            
Suggest correction
Creating personal tab
Creating personal tab
You can edit any tab online and save it as your Personal.

You can edit, replace or remove any tab part or add personal notes – all changes will be seen only by you.

Personal tabs can be accessed anytime from any device, even offline.
Learn more »
Give kudos to tab author, rate the tab!
1 2 3 4 5
comments
print report bad tab
1 comment total.
+1 reply
felix_PY 309 Jun 16, 2015 11:30 AM

Sehr gute Tabs! Klingt hammer

guest
You may want to rate the tab now too:
select rating
Wanna post a correction for this tab? Suggest correction