Oops, an error
Loading. Please wait.
We have an official The Model tab made by UG professional guitarists. Check out the tab »
×

The Model tab

version 3
version 3

Whole song

Interactive

5,738 views 3 this week
2 commentsread comments
1 2 3 4 5
x 6
add to favorites
×
Save as Personal and add changes to this tab that will be seen only by you. Learn more ›
×
You can save this tab as Personal to edit and correct it or add notes. All changes will be seen only by you. Learn more »
launch autoscroll
font size
0
reset
how to read this tab
guitar tuner
edit
Autoscroll
slow
fast
+/-
esc
set tempo
stop
Kraftwerk - The Model

Main rhythm.
e|-------------------------------------------------------|
B|-------------------------------------------------------|
G|---9-x-9---9--9---9--9---------------------------------|
D|---7-x-7--10--7--10--7---------9-x-9---9--9---9--9-----|
A|-------------------------------7-x-7--10--7--10--7-----|
E|-------------------------------------------------------|

Main melody.
e|------5---8-7-5-7--3----|
B|----5----------------5--|
G|------------------------|
D|------------------------|
A|------------------------|
E|------------------------|

Bridge rhythm. x2                 1st ending             2 ending  
e|------------------------------|----------------------|--------------------
B|------------------------------|----------------------|--------------------
G|-----5-------5----4-------4---|----------------------|----9-----9---9----9
D|------------------------------|---5-------5---5-----5|--------------------
A|--3----3--3----2----2--2----0-|----------------------|--7---7-7---7--7-7--
E|------------------------------|-3----3--3---3---3-3--|--------------------

Bridge melody.
e|------------------------------4-5-7-----|
B|---------------------------5------------|
G|--5---4------------5---4----------------|
D|---------7---5--------------------------|
A|----------------------------------------|
E|----------------------------------------|

Outro melody
    A minor          E minor         A minor          E minor   
e|----------------------------------------------------------------3-------|
B|--5-------5---5-6--5-------5--3----5-------5---5-6--5-------5-----------|
G|----5---5---5--------4---4-----------5---5---5--------4---4-------------|
D|------7----------------5---------------7----------------5---------------|
A|------------------------------------------------------------------------|
E|------------------------------------------------------------------------|
        
or  
e|12----------12----12-13--12------12-10--12--------12--12-13-12------12-15-|
B|---13-10-13----13----------12--12---------13-10-13--13--------12--12------|
G|-----------------------------12---------------------------------12--------|
D|--------------------------------------------------------------------------|
A|--------------------------------------------------------------------------|
E|--------------------------------------------------------------------------|

Lyrics
------
She's a model and she's looking good
I'd like to take her home that's understood
She plays hard to get, she smiles from time to time
It only takes a camera to change her mind

She's going out tonight, loves drinking just champagne
And she has been checking nearly all the men
She's playing her game and you can hear them say
She is looking good, for beauty we will pay

She's posing for consumer products now and then
For every camera she gives the best she can
I saw her on the cover of a magazine
Now she's a big success, I want to meet her again

            
            
Suggest correction
Creating personal tab
Creating personal tab
You can edit any tab online and save it as your Personal.

You can edit, replace or remove any tab part or add personal notes – all changes will be seen only by you.

Personal tabs can be accessed anytime from any device, even offline.
Learn more »
There is a new version of this tab from 6 days ago which you may like more. Go check it out:
comments
print report bad tab
2 comments total.
0 reply
Schdaiff 358 Jul 28, 2010 08:25 AM

I guess in the bridge it should be the quint instead of the octave.... like this:

e|------------------------------|----------------------|--------------------
B|------------------------------|----------------------|--------------------
G|------------------------------|----------------------|----9-----9---9----9
D|-----5-------5----4-------4---|----------------------|--------------------
A|--3----3--3----2----2--2----0-|---5-------5---5-----5|--7---7-7---7--7-7--
E|------------------------------|-3----3--3---3---3-3--|--------------------

and a little tip: In verse 2 the melody goes one octave higher later

and in 3rd verse it stays in the higher octave

otherwise an awesome tab ;) i just try to play all the bass and the melody together ... perhaps i find a way ;)

0 reply
swave75 382 Nov 28, 2012 05:09 PM

Great tab dude!

guest
Wanna post a correction for this tab? Suggest correction