Oops, an error
Loading. Please wait.

Fujitivo tab

version 2
version 2

Whole song

by Kraken
32 views 1 this week
no commentswrite comment
1 2 3 4 5
3 more votes to show rating
add to favorites
×
Save as Personal and add changes to this tab that will be seen only by you. Learn more ›
×
You can save this tab as Personal to edit and correct it or add notes. All changes will be seen only by you. Learn more »
launch autoscroll
font size
0
reset
how to read this tab
guitar tuner
edit
Autoscroll
slow
fast
+/-
esc
set tempo
stop
Este es un tema que ya había enviado a la cuerda pero conforme lo iba
mirando le note algunos errores y me decidí a hacer una mejor tab para
este buen tema proveniente del álbum Kraken I disfrútenlo, tengan
en cuenta que este tema se toca con dos guitarras y que la que
saque aquí es la guitarra rítmica.

Afinación Mi Natural

Intro:
e|-------------------|---------------------|--------------------|
B|-------------------|---------------------|--------------------|
G|-------------------|---------------------|--------------------|
D|-------------------|-4-5-4-2-4-4-5-4-2-4-|-2-4-2-0-2--2-4-2-0-|
A|-4--4--5--4--4--0--|---------------------|--------------------|
E|-2--2--3--2--2--0--|---------------------|--------------------|

e|---------------------|--------------------|
B|---------------------|--------------------|
G|---------------------|--------------------|
D|-4-5-4-2-4-4-5-4-2-4-|-2-4-2-0-2--2-4-2-0-|
A|---------------------|--------------------|
E|---------------------|--------------------|

e|---------------------|-----------------------|
B|---------------------|-----------------------|
G|---------------------|-----------------------|
D|-4-5-4-2-4-4-5-4-2-4-|-2-4-2-0-2--2-4-2-0-2-2|
A|---------------------|-----------------------|
E|---------------------|-----------------------|

  Vistió la inocencia?                la vida es ruleta en cosas de azar
e|------------------------|---------|------------------------------------
B|------------------------|---------|------------------------------------
G|-4-----5-----4-----5----|-4-2-----|------------------------------------
D|-2-----3-----2-----3----|-----5-4-|--------------------------4-4-4-4-2-
A|------------------------|---------|------------------------------------
E|------------------------|---------|------------------------------------

e|----------------------|---------------------|-----------------------|
B|----------------------|---------------------|-----------------------|
G|----------------------|---------------------|-----------------------|
D|2-2-2-----------------|-4-5-4-2-4-4-5-4-2-4-|-2-4-2-0-2--2-4-2-0-2-2|
A|------5-5-5-5-4-4-4-4-|---------------------|-----------------------|
E|----------------------|---------------------|-----------------------|

e|---------------------|--------------------|
B|---------------------|--------------------|
G|---------------------|--------------------|
D|-4-5-4-2-4-4-5-4-2-4-|-2-4-2-0-2--2-4-2-0-|
A|---------------------|--------------------|
E|---------------------|--------------------|

 Burlando peldaños?                    la vida es ruleta en cosas de azar
e|------------------------|---------|------------------------------------
B|------------------------|---------|------------------------------------
G|-4-----5-----4-----5----|-4-2-----|------------------------------------
D|-2-----3-----2-----3----|-----5-4-|--------------------------4-4-4-4-2-
A|------------------------|---------|------------------------------------
E|------------------------|---------|------------------------------------

        Fugitivo, Fugitivo Su afán le delata al pasar
e|----------------------|------------------------|
B|----------------------|------------------------|
G|----------------------|------------------------|
D|2-2-2-----------------|-4--4---0-0-0-0-0-0-0-0-|
A|------5-5-5-5-4-4-4-4-|-2--2-------------------|
E|----------------------|------------------------|
  Fugitivos, Fugitivos Abundan en esta ciudad
e|------------------------|
B|------------------------|
G|------------------------|
D|-4--4---0-0-0-0-0-0-0-0-|
A|-2--2-------------------|
E|------------------------|

  Fugitivo, Fugitivo Su afán le delata al pasar
e|------------------------|
B|------------------------|
G|------------------------|
D|-4--4---0-0-0-0-0-0-0-0-|
A|-2--2-------------------|
E|------------------------|

  Fugitivos, Fugitivos Abundan en esta ciudaaaaaaaaaaad
e|----------------------|-----------------------|-----------------------|
B|----------------------|-----------------------|-----------------------|
G|----------------------|-----------------------|-----------------------|
D|----------------------|-----------------------|-----------------------|
A|4-4-4-4-4-4-4-4-0-5-0-|-4-4-4-4-4-4-4-4-0-5-0-|-4-4-4-4-4-4-4-4-0-5-0-|
E|2-2-2-2-2-2-2-2-0-3-0-|-2-2-2-2-2-2-2-2-0-3-0-|-2-2-2-2-2-2-2-2-0-3-0-|

e|----------------------|-----------------------|-----------------------|
B|----------------------|-----------------------|-----------------------|
G|----------------------|-----------------------|-----------------------|
D|----------------------|-4-4-4-4-4-4-4-4-0-5-0-|?4-4-4-4-4-4-4-4-0-5-0-|
A|4-4-4-4-4-4-4-4-0-5-0-|-2-2-2-2-2-2-2-2-0-3-0-|-2-2-2-2-2-2-2-2-0-3-0-|
E|2-2-2-2-2-2-2-2-0-3-0-|-----------------------|-----------------------|

e|----------------------|-----------------------|-----------------------|
B|----------------------|-----------------------|-----------------------|
G|----------------------|-----------------------|-----------------------|
D|4-4-4-4-4-4-4-4-0-5-0-|?4-4-4-4-4-4-4-4-0-5-0-|-----------------------|
A|2-2-2-2-2-2-2-2-0-3-0-|-2-2-2-2-2-2-2-2-0-3-0-|-4-4-4-4-4-4-4-4-0-5-0-|
E|----------------------|-----------------------|-2-2-2-2-2-2-2-2-0-3-0-|

e|----------------------|-----------------------|-----------------------|
B|----------------------|-----------------------|-----------------------|
G|----------------------|-----------------------|-----------------------|
D|----------------------|-----------------------|-----------------------|
A|4-4-4-4-4-4-4-4-0-5-0-|-4-4-4-4-4-4-4-4-0-5-0-|-4-4-4-4-4-4-4-4-0-5-0-|
E|2-2-2-2-2-2-2-2-0-3-0-|-2-2-2-2-2-2-2-2-0-3-0-|-2-2-2-2-2-2-2-2-0-3-0-|

e|----------------------|-----------------------|-----------------------|
B|----------------------|-----------------------|-----------------------|
G|----------------------|-----------------------|-----------------------|
D|4-4-4-4-4-4-4-4-0-5-0-|?4-4-4-4-4-4-4-4-0-5-0-|-4-4-4-4-4-4-4-4-0-5-0-|
A|2-2-2-2-2-2-2-2-0-3-0-|-2-2-2-2-2-2-2-2-0-3-0-|-2-2-2-2-2-2-2-2-0-3-0-|
E|----------------------|-----------------------|-----------------------|

                        La vida es ruleta en cosas de azar
e|----------------------| Cuando se termina de decir esto Empieza el solo
B|----------------------| de guitarra y hay una segunda guitarra que
G|----------------------| acompaña con lo siguiente
D|4-4-4-4-4-4-4-4-0-5-0-|
A|2-2-2-2-2-2-2-2-0-3-0-|
E|----------------------|

e|---------------------|--------------------|
B|---------------------|--------------------|
G|---------------------|--------------------|
D|-4-5-4-2-4-4-5-4-2-4-|-2-4-2-0-2--2-4-2-0-|
A|---------------------|--------------------|
E|---------------------|--------------------|

e|---------------------|--------------------|
B|---------------------|--------------------|
G|---------------------|--------------------|
D|-4-5-4-2-4-4-5-4-2-4-|-2-4-2-0-2--2-4-2-0-|
A|---------------------|--------------------|
E|---------------------|--------------------|

e|---------------------|--------------------|
B|---------------------|--------------------|
G|---------------------|--------------------|
D|-4-5-4-2-4-4-5-4-2-4-|-2-4-2-0-2--2-4-2-0-|
A|---------------------|--------------------|
E|---------------------|--------------------|

e|---------------------|------------------------------------|
B|---------------------|------------------------------------|
G|---------------------|------------------------------------|
D|-4-5-4-2-4-4-5-4-2-4-|-2-4-2-0-2--2-4-2-0--2?4--2?--------|
A|---------------------|-----------------------2--0--5--4---|
E|---------------------|-----------------------------3--2---|


Luego empieza el siguiente arpegio con guitarra limpia el
cual lo hace una sola guitarra
  Ha Ha Ha Ha                           Ha Ha Ha
e|--------------------------3-----3---|---------------------------------
B|---------0-----0------------0-------|---------3-----3---------3-----3-
G|-----0-----0----------0-------0-----|-----4-----4---------0-----0-----
D|---4---4-----4------4---4-----------|---4---4-----4-----4---4-----4---
A|-2----------------3-----------------|-2---------------3---------------
E|--------------------------------3-2-|---------------------------------

      Jugó hasta el miedo?                       Las bocas del ego?
e|---|---------3-------------------------|------------------------3------
B|---|-----------0-----------3-----3-----|---------3-----3----------0----
G|---|-----0-------0-----4-----4---------|-----4-----4---------0------0--
D|---|---4---4---------4---4-----4-------|---4---4-----4-----4---4-------
A|---|-3-------------2-------------------|-2---------------3-------------
E|3-2|-------------------------------3-2-|-------------------------------

             Bebieron su sangre y su piel?  Desgarrada fue trofeo?
e|3----|------------------------3---------|------------------------------
B|-----|---------3-----3----------0-------|---------3-----3---------3----
G|-----|-----4-----4---------0------0-----|-----4-----4---------0-----0--
D|-----|---4---4-----4-----4---4----------|---4---4-----4-----4---4-----4
A|-----|-2---------------3----------------|-2---------------3------------
E|--3-2|-------------------------------3-2|------------------------------

 En prisiones de papel   Perdido, perdido en su afán Perdido, perdido en
e|-----|------------------------------------|----------------------------
B|3----|---------3-----3---------3-----3----|---------3-----3---------3--
G|-----|-----4-----4---------0-----0--------|-----4-----4---------0-----0
D|-----|---4---4-----4-----4---4-----4------|---4---4-----4-----4---4----
A|-----|-2---------------3------------------|-2---------------3----------
E|--3-2|---------------------------------3-2|----------------------------

 Su afán  aa aaa a a aa  aaa a a a aaaa a aaa aaa aaa aaaa  aaaa aaaaaaaa
         Desde aquí suena la guitarra con distorsión
e|------|------------------------------------| El Arpegio distorsionado
B|--3---|---------3-----3---------3-----3----| se repite 2 veces más
G|4-----|-----4-----4---------0-----0--------|
D|------|---4---4-----4-----4---4-----4------|
A|------|-2---------------3------------------|
E|---3-2|---------------------------------3-2|

A la cuarta repetición se hace lo siguiente
e|--------------------------------------|
B|---------3-----3---------3-----3------|
G|-----4-----4---------0-----0----------|
D|---4---4-----4-----4---4-----4--------|
A|-2---------------3-------------------4|
E|---------------------------------3-2-2|

Luego de que grita afán por un buen rato se va a lo siguiente:

e|---------------------|--------------------|
B|---------------------|--------------------|
G|---------------------|--------------------|
D|-4-5-4-2-4-4-5-4-2-4-|-2-4-2-0-2--2-4-2-0-|
A|---------------------|--------------------|
E|---------------------|--------------------|

e|---------------------|--------------------|
B|---------------------|--------------------|
G|---------------------|--------------------|
D|-4-5-4-2-4-4-5-4-2-4-|-2-4-2-0-2--2-4-2-0-|
A|---------------------|--------------------|
E|---------------------|--------------------|

Marcho al el olvido?                   la vida es ruleta en cosas de azar
e|------------------------|---------|------------------------------------
B|------------------------|---------|------------------------------------
G|-4-----5-----4-----5----|-4-2-----|------------------------------------
D|-2-----3-----2-----3----|-----5-4-|--------------------------4-4-4-4-2-
A|------------------------|---------|------------------------------------
E|------------------------|---------|------------------------------------

                         Fugitivo, Fugitivo Su afán le delata al pasar
e|----------------------|------------------------|
B|----------------------|------------------------|
G|----------------------|------------------------|
D|2-2-2-----------------|-4--4---0-0-0-0-0-0-0-0-|
A|------5-5-5-5-4-4-4-4-|-2--2-------------------|
E|----------------------|------------------------|
  Fugitivos, Fugitivos Abundan en esta ciudad
e|------------------------|
B|------------------------|
G|------------------------|
D|-4--4---0-0-0-0-0-0-0-0-|
A|-2--2-------------------|
E|------------------------|

  Fugitivo, Fugitivo Su afán le delata al pasar
e|------------------------|
B|------------------------|
G|------------------------|
D|-4--4---0-0-0-0-0-0-0-0-|
A|-2--2-------------------|
E|------------------------|

  Fugitivos, Fugitivos Abundan en esta ciudaaaaaaaaaaaaaaaaaaaaaaaad
e|------------------------|---------------------|--------------------|
B|------------------------|---------------------|--------------------|
G|------------------------|---------------------|--------------------|
D|-4--4---0-0-0-0-0-0-0-0-|-4-5-4-2-4-4-5-4-2-4-|-2-4-2-0-2--2-4-2-0-|
A|-2--2-------------------|---------------------|--------------------|
E|------------------------|---------------------|--------------------|

e|---------------------|--------------------|---------------------|
B|---------------------|--------------------|---------------------|
G|---------------------|--------------------|---------------------|
D|-4-5-4-2-4-4-5-4-2-4-|-2-4-2-0-2--2-4-2-0-|-4--4--5--4--4?-2-?4-|
A|---------------------|--------------------|-2--2--3--2--2--0?-2-|
E|---------------------|--------------------|---------------------|

FIN

ESPERO QUE LES GUSTE SI NO TIENEN EL KRAKEN I BUSQUENLA EN EL ALBUM
UNA LEYENDADEL ROCK.
CUALQUIER APORTE SUGERENCIA O RECLAMO ESCRIBANME AL COORREO
Kodama456@
QUE VIVA EL TITAN * SIEMPREe

            
            
Suggest correction
Creating personal tab
Creating personal tab
You can edit any tab online and save it as your Personal.

You can edit, replace or remove any tab part or add personal notes – all changes will be seen only by you.

Personal tabs can be accessed anytime from any device, even offline.
Learn more »
Give kudos to tab author, rate the tab!
1 2 3 4 5
comments
print report bad tab
guest
Wanna post a correction for this tab? Suggest correction