Oops, an error
Loading. Please wait.

Hijos Del Sur tab

version 2
version 2

Whole song

by Kraken
144 views 3 this week
no commentswrite comment
1 2 3 4 5
3 more votes to show rating
add to favorites
×
Save as Personal and add changes to this tab that will be seen only by you. Learn more ›
×
You can save this tab as Personal to edit and correct it or add notes. All changes will be seen only by you. Learn more »
launch autoscroll
font size
0
reset
how to read this tab
guitar tuner
edit
Autoscroll
slow
fast
+/-
esc
set tempo
stop
esta version de hijos del sur es segun la del album
kraken filarmonico, es mi primera transcripción asi
que espero que les suene bien

Intro:

E?--------------------------
A-3-5/5-3-5/5--------7-5-0
D-5-7/7-5-7/7-7-7-5-5-----

 *riff basíco

E---0-0-0-0-0-0-6/8---0-0-0-0-0-0-5-3---
A-5-------------8/10/5------------------5-3
D-7------------------7------------------

E---0-0-0-0-0-0-6/8---0-0-0-0-0-0---------
A-5-------------8/10/5-------------5-3-----
D-7------------------7----------------5-3-

Quiero gritar latino soy?

E---0-0-0-0-0-0-6/8---0-0-0-0-0-0-5-3---
A-5-------------8/10/5------------------5-3
D-7------------------7------------------

E---0-0-0-0-0-0-6/8---0-0-0-0-0-0---------
A-5-------------8/10/5-------------5-3-----
D-7------------------7----------------5-3-


Nacimos hijos del sol?

A-3---5---3---5----
D-5---7---5---7----


Como frutos que gimen?

E---0-0-0-0-0-0-6/8---0-0-0-0-0-0-5-3---
A-5-------------8/10/5------------------5-3
D-7------------------7------------------

E---0-0-0-0-0-0-6/8---0-0-0-0-0-0---------
A-5-------------8/10/5-------------5-3-----
D-7------------------7----------------5-3-

Es la verdad latino soy...

E---0-0-0-0-0-0-6/8---0-0-0-0-0-0-5-3---
A-5-------------8/10/5------------------5-3
D-7------------------7------------------

E---0-0-0-0-0-0-6/8---0-0-0-0-0-0---------
A-5-------------8/10/5-------------5-3-----
D-7------------------7----------------5-3-

Yo nunca ignoro el valor?

A-3---5---3---5----
D-5---7---5---7----

libre!!   Libre!!

E-0-0-0-----0-0-0-----0-0-0--------
A-------3-2-------3-2-------3-2-3-2
D-------5-4-------5-4-------5-4-5-4


Al tercer libre cambia el tono?
y dice sentirse libre

A-0-0-0----0-0-0-----0-0-0--------
D------3-2-------3-2-------3-2-3-2
G------5-4-------5-4-------5-4-5-4

Al segundo sentirse libre

E---0-0-0-0-0-0-6/8---0-0-0-0-0-0-6/8---
A-5-------------8/10/5------------8/10/5
D-7------------------7-----------------7

Vuelve riff basico

Como ignorar cuanto valor?

A-3---5---3---5----
D-5---7---5---7----

Ese que aún sobrevive?

E---0-0-0-0-0-0-6/8---0-0-0-0-0-0-6/8---
A-5-------------8/10/5------------8/10/5
D-7------------------7-----------------7

A0-0-0-0-0-0-0-8-8-8-0-0-0-0-0-0-0-----
G---------------------------------5-7-8


Si este pasado pesa...

A0-0-0-0-0-0-0-8-8-8-0-0-0-0-0-0-0-----
D---------------------------------5-7-8


Como ignorar cuanto valor posee la vida, lucha y grita

E-0---3---5---7---0---3---5---7
A-0---5---7---9---0---5---7---9

Latino Latino latinoamericano?

A0-0-0-0-0-0-0-8-8-8-0-0-0-0-0-0-0-----
D--------------------------------5-7-8

Como ignorar cuanto valor posee la vida dejarla atada a nunca!!!

E0---3---5---7---0---3---5---7---0---3-3/7
A0---5---7---9---0---5---7---9---0---5-5/9

E------------------------------------------------------
A-0---3-3/5---0-0-0-0-0-0-0-8-8-8-0-0-0-0-0-0-0--------
D-0---5-5/7-------------------------------------5-7-8--


E------------------------------------------------------
A-0-0-0-0-0-0-0-8-8-8-0-0-0-0-0-0-0--------------------
D-----------------------------------5-7-8

Latino, Latino, Latinoamericano

A0-0-0-0-0-0-0-8-8-8-0-0-0-0-0-0-0-----0-0-0-0-0-0-0-8-8-8
D---------------------------------5-7-8-------------------

A------
D-5-7-8

Como ignorar cuanto valor posee la vida?

E-0---3---5---7---0---3---5---7
A-0---5---7---9---0---5---7---9

Latino!!!

E-3-3-3-
A-5-5-3-

            
            
Suggest correction
Creating personal tab
Creating personal tab
You can edit any tab online and save it as your Personal.

You can edit, replace or remove any tab part or add personal notes – all changes will be seen only by you.

Personal tabs can be accessed anytime from any device, even offline.
Learn more »
Give kudos to tab author, rate the tab!
1 2 3 4 5
comments
print report bad tab
guest
Wanna post a correction for this tab? Suggest correction