Oops, an error
Loading. Please wait.

Idioma Del Rock tab

by Kraken
35 views 1 this week
no commentswrite comment
1 2 3 4 5
3 more votes to show rating
add to favorites
×
Save as Personal and add changes to this tab that will be seen only by you. Learn more ›
×
You can save this tab as Personal to edit and correct it or add notes. All changes will be seen only by you. Learn more »
launch autoscroll
font size
0
reset
how to read this tab
guitar tuner
edit
Autoscroll
slow
fast
+/-
esc
set tempo
stop
Esta aunque no tiene solos considero que es una versión mucho más
completa y espero les guste.

Intro:
G|------------|-----------|*2
D|-9-9-7-9-12-|-9-9-7-9-4-|
A|-7-7-5-7-10-|-7-7-5-7-2-|
E|------------|-----------|

Aquí entra la batería y dice: yo siento el rock, yo vivo el rock aquí
entra un interludio que no he sacado luego va:

D|-----------------------------|
A|-2-2-5-----7-----------------|
E|-0-0-3-0-0-5-0-0-5-7-5/3-5-3-|

D|--------------------------------------------------------|
A|-2-2-5-----7-----------------------------------------2-2|
E|-0-0-3-0-0-5-0-0-5-7-5/3-5-3-5-7-5/3-5-3-5-7-5/3-5-3-0-0|

Si la unión hace la fuerza?
D|--------------|
A|-2---5--7--9--|
E|-0---3--5--7--|

Es el idioma del rock?
D|-----------------------------|
A|-2-2-5-----7-5-7-5-7-5-7-5-7-|
E|-0-0-3-0-0-5-3-5-3-5-3-5-3-5-|

Un idioma sin fronteras?
D|-----------|
A|-2---5--7--|
E|-0---3--5--|

Hoy harás que este lugar?
D|-------------|
A|-9-7-5-4--2--|
E|-7-5-3-2--0--|

Yo siento el rock?
D|----------|
A|-2---5----|
E|-0---3----|

Con la fuerza de un volcán?
D|-------|-----------------------------|
A|-7--9--|-2-2-5-----7-----------------|
E|-5--7--|-0-0-3-0-0-5-0-0-5-7-5/3-5-3-|

Yo amo el rock?
D|----------|
A|-2---5----|
E|-0---3----|

Sin fronteras y en libertad
D|-------|-----------------------------|
A|-7--9--|-2-2-5-----7-----------------|
E|-5--7--|-0-0-3-0-0-5-0-0-5-7-5/3-5-3-|

Siempre, siempre, siempreeeeee?
D|-----------------------------|
A|-2-2-5-----7-----------------|
E|-0-0-3-0-0-5-0-0-5-7-5/3-5-3-|

En él solo el teclado hace lo siguiente:

D|-10-10-10-10-10-10-10-9-9-9-9-9-9-9-|
A|-8--8--8--8--8--8--8--7-7-7-7-7-7-7-|
E|------------------------------------|

D|---------------------|-----------------------------|
A|-9-x-7-x-5-x-4-4-4-4-|-2-2-5-----7-----------------|
E|-7-x-5-x-3-x-2-2-2-2-|-0-0-3-0-0-5-0-0-5-7-5/3-5-3-|

                                 Hey?
D|-----------------------------|
A|-2-2-5-----7-----------------|
E|-0-0-3-0-0-5-0-0-5-7-5/3-5-3-|


G|------------|-----------|------------|----------------|
D|-9-9-7-9-12-|-9-9-7-9-4-|-9-9-7-9-12-|-9-9-7-9-4-4-4-4|
A|-7-7-5-7-10-|-7-7-5-7-2-|-7-7-5-7-10-|-7-7-5-7-2-2-2-2|
E|------------|-----------|------------|----------------|

Con la fuerza de un volcán?
D|-------|-----------------------------|
A|-7--9--|-2-2-5-----7-----------------|
E|-5--7--|-0-0-3-0-0-5-0-0-5-7-5/3-5-3-|

Yo amo el rock?
D|----------|
A|-2---5----|
E|-0---3----|

Sin fronteras y en libertad
D|-------|-----------------------------|
A|-7--9--|-2-2-5-----7-----------------|
E|-5--7--|-0-0-3-0-0-5-0-0-5-7-5/3-5-3-|

Siempre, siempre, siempreeeeee?
D|-----------------------------|
A|-2-2-5-----7-----------------|
E|-0-0-3-0-0-5-0-0-5-7-5/3-5-3-|

Yo amo el rock?
D|----------|
A|-2---5----|
E|-0---3----|

Sin fronteras y en libertad
D|-------|-----------------------------|
A|-7--9--|-2-2-5-----7-----------------|
E|-5--7--|-0-0-3-0-0-5-0-0-5-7-5/3-5-3-|

Siempre, siempre, siempreeeeee?
D|-----------------------------|
A|-2-2-5-----7-----------------|
E|-0-0-3-0-0-5-0-0-5-7-5/3-5-3-|


Es el idioma del rock
D|-----------------------------|*2
A|-2-2-5-----7-----------------|
E|-0-0-3-0-0-5-0-0-5-7-5/3-5-3-|

Es el idioma del rock
D|-----------------------------------|*2
A|-2-2-2-5-------7-------------------|
E|-0-0-0-3-0-0-0-5-0-0-0-5-7-5/3-5-3-|

D|---------------------------------------------------------|
A|-2-2-2-5-----7-----------------------------------------2-|
E|-0-0-0-3-0-0-5-0-0-5-7-5/3-5-3-5-7-5/3-5-3-5-7-5/3-5-3-0-|

Fin.

            
            
Suggest correction
Creating personal tab
Creating personal tab
You can edit any tab online and save it as your Personal.

You can edit, replace or remove any tab part or add personal notes – all changes will be seen only by you.

Personal tabs can be accessed anytime from any device, even offline.
Learn more »
Give kudos to tab author, rate the tab!
1 2 3 4 5
comments
print report bad tab
guest
Wanna post a correction for this tab? Suggest correction