Oops, an error
Loading. Please wait.

Rompiendo El Hechizo tab

by Kraken
23 views 1 this week
no commentswrite comment
1 2 3 4 5
3 more votes to show rating
add to favorites
×
Save as Personal and add changes to this tab that will be seen only by you. Learn more ›
×
You can save this tab as Personal to edit and correct it or add notes. All changes will be seen only by you. Learn more »
launch autoscroll
font size
0
reset
how to read this tab
guitar tuner
edit
Autoscroll
slow
fast
+/-
esc
set tempo
stop
Saludos a todos los fans de Kraken, para los que son tan
fieles seguidores como yo del grupo, se que les va encantar
esta canción.

INTRO TECLADO:
e|----------|----------|
B|----------|----------|
G|---9------|---9------|
D|-------11-|-------11-|
A|-9---9----|-9---9----|
E|----------|----------|

ENTRADA DE GUITARRA: (Esto también lo hace mientras se canta)
e|---------------------------|
B|---------------------------|
G|/-11-11-11--11-11-11-11-11-|
D|---------------------------|
A|---------------------------|
E|---------------------------|

En el último eslabón? (Esta parte la hace el piano)
e|-------------------------|-------------------------|
B|-------2-----2-----2-----|-------------------------|
G|-----2---2-----2-----2---|-------2-----2-----2-----|
D|---4-------2-----2-----2-|-----4---4-----4-----4---|
A|-------------------------|---4-------4-----4-----4-|
E|-2-----------------------|-2-----------------------|

e|-------------------------|-------------------------|
B|-------------------------|-------------------------|
G|-------2-----2-----2-----|-------2-----2-----2-----|
D|-----2---2-----0-----0---|-----4---4-----4-----4---|
A|---0-------0-----0-----0-|---4-------4-----4-----4-|
E|-0-----------------------|-2-----------------------|

Ya no puedes desgarrar? (Distorsión)
e|------------|---------------------|
B|------------|---------------------|
G|------------|---------------------|
D|-7-----6----|-7-----4-------------|
A|-5--7--4--4-|-5--7--6--4--3--4----|
E|----5-----2-|----5-----2--1--2----|
Ya no, ya no quiero ser más? (Distorsión)
A|-----------------------------|
E|-6-6-6-6-6-6-6-5-5-5-5-5-5-5-|

La sonrisa de un triste arlequín?
A|-6-6-6-6-6-6-6-5-5-5-5-7-7-7--|
E|------------------------------|

En el reino de mi soledad?
A|-----------------------------|
E|-6-6-6-6-6-6-6-5-5-5-5-5-5-5-|

Hoy prefiero volver a vivir?
A|-6-6-6-6-6-6-6-5-5-5-5-7-7-7--|
E|------------------------------|


A veces, no siempre solo a veces? (Piano)
e|-------------------------|-------------------------|
B|-------2-----2-----2-----|-------------------------|
G|-----2---2-----2-----2---|-------2-----2-----2-----|
D|---4-------2-----2-----2-|-----4---4-----4-----4---|
A|-------------------------|---4-------4-----4-----4-|
E|-2-----------------------|-2-----------------------|

e|-------------------------|-------------------------|
B|-------------------------|-------------------------|
G|-------2-----2-----2-----|-------2-----2-----2-----|
D|-----2---2-----0-----0---|-----4---4-----4-----4---|
A|---0-------0-----0-----0-|---4-------4-----4-----4-|
E|-0-----------------------|-2-----------------------|

Ya no puedes desgarrar? (Distorsión)
e|------------|---------------------|
B|------------|---------------------|
G|------------|---------------------|
D|-7-----6----|-7-----4-------------|
A|-5--7--4--4-|-5--7--6--4--3--4----|
E|----5-----2-|----5-----2--1--2----|


Ya no, ya no quiero ser más? (Distorsión)
A|-----------------------------|
E|-6-6-6-6-6-6-6-5-5-5-5-5-5-5-|

La sonrisa de un triste arlequín?
A|-6-6-6-6-6-6-6-5-5-5-5-7-7-7--|
E|------------------------------|

En el reino de mi soledad?
A|-----------------------------|
E|-6-6-6-6-6-6-6-5-5-5-5-5-5-5-|

Ya no, ya noooooooooooooooo?
A|-6-6-6-6-6-6-6-5-5-5-5-7-7-7--|
E|------------------------------|

                    Hoy ya no entras hechicero
D|-----------------------------------|
A|---4-4---4-4---4-------2h3-2-------|
E|-0-2-2-0-2-2-0-2-0-2-5-------5-2---|

                    Rastro de sombras surgir
D|-----------------------------------|
A|---4-4---4-4---4-------2h3-2-------|
E|-0-2-2-0-2-2-0-2-0-2-5-------5-2---|

                    Ya no te temo, ni debo ni temo
D|-----------------------------------|
A|---4-4---4-4---4-------2h3-2-------|
E|-0-2-2-0-2-2-0-2-0-2-5-------5-2---|

                   Ya no, ya no no no no no no no
D|-----------------------------------|
A|---4-4---4-4---4-------2h3-2-------|
E|-0-2-2-0-2-2-0-2-0-2-5-------5-2---|


En el solo suenan estas dos partes rítmicas

D|-----------------------------------|*4
A|---4-4---4-4---4-------2h3-2-------|
E|-0-2-2-0-2-2-0-2-0-2-5-------5-2---|

e|------------|---------------------|solo una vez
B|------------|---------------------|
G|------------|---------------------|
D|-7-----6----|-7-----4-------------|
A|-5--7--4--4-|-5--7--6--4--3--4----|
E|----5-----2-|----5-----2--1--2----|

Ya no, ya no quiero ser más?
A|-----------------------------|
E|-6-6-6-6-6-6-6-5-5-5-5-5-5-5-|

La sonrisa de un triste arlequín?
A|-6-6-6-6-6-6-6-5-5-5-5-7-7-7--|
E|------------------------------|

En el reino de mi soledad?
A|-----------------------------|
E|-6-6-6-6-6-6-6-5-5-5-5-5-5-5-|

Ya no, ya noooooooooooooooo?
A|-6-6-6-6-6-6-6-5-5-5-5-7-7-7--|
E|------------------------------|

                   Uh uu uh uuuu
D|-----------------------------------|
A|---4-4---4-4---4-------2h3-2-------|
E|-0-2-2-0-2-2-0-2-0-2-5-------5-2---|

D|-----------------|
A|---4-4---4-4---4-|
E|-0-2-2-0-2-2-0-2-|

Fin

Espero que se la sollen y no me roben
el credito como con hijos del sur.

Por lo demas exitos y QUE VIVA ELKIN Y SU IDIOMA DEL ROCK

            
            
Suggest correction
Creating personal tab
Creating personal tab
You can edit any tab online and save it as your Personal.

You can edit, replace or remove any tab part or add personal notes – all changes will be seen only by you.

Personal tabs can be accessed anytime from any device, even offline.
Learn more »
Give kudos to tab author, rate the tab!
1 2 3 4 5
comments
print report bad tab
guest
Wanna post a correction for this tab? Suggest correction