Oops, an error
Loading. Please wait.

Unemployed tab

by Kraut
184 views 3 this week
no commentswrite comment
1 2 3 4 5
3 more votes to show rating
add to favorites
×
Save as Personal and add changes to this tab that will be seen only by you. Learn more ›
×
You can save this tab as Personal to edit and correct it or add notes. All changes will be seen only by you. Learn more »
launch autoscroll
font size
0
reset
how to read this tab
guitar tuner
edit
Autoscroll
slow
fast
+/-
esc
set tempo
stop
Author
Difficulty
Unemployed by Kraut.
Tabbed by Mathieu T.(Machine62)
Email:  Machine_sk8@hotmail.fr

let me feedback  please :)

Intro:

e|------------------------------------------------------|
b|------------------------------------------------------|
g|------------------------------------------------------|
d|------------------------------------------------------| repeat X4
a|-----------------4-4-4-4-5-5-5-5----------------------|
E|----------2-2-2-2---------------5-5-5-5---------------|

Verses:

e|------------------------------------------------------|
b|------------------------------------------------------|
g|------------------------------------------------------|
d|------------------------------------------------------| 
a|-----------------4-4-4-4-5-5-5-5----------------------|
E|----------2-2-2-2---------------5-5-5-5---------------|

There’s too much fighting in England

e|------------------------------------------------------|
b|------------------------------------------------------|
g|------------------------------------------------------|
d|------------------------------------------------------| 
a|-----------------4-4-4-4-5-5-5-5----------------------|
E|----------2-2-2-2---------------5-5-5-5---------------|

There’s too much fighting in Ireland

e|------------------------------------------------------|
b|------------------------------------------------------|
g|------------------------------------------------------|
d|------------------------------------------------------| 
a|-----------------4-4-4-4-5-5-5-5----------------------|
E|----------2-2-2-2---------------5-5-5-5---------------|

There’s to many Riots,to many Ulsters

e|------------------------------------------------------|
b|------------------------------------------------------|
g|------------------------------------------------------|
d|------------------------------------------------------| 
a|-----------------4-4-4-4-5-5-5-5----------------------|
E|----------2-2-2-2---------------5-5-5-5---------------|

Do you want it Here!?


Bridge:

first Guitar Rhythmic :

e|------------------------------------------------------|
b|------------------------------------------------------|
g|-----11------11-----11------11------------------------|
d|-----11------11-----11------11------------------------|repeat X4
a|-----9-------9------9-------9-------------------------|
e|*0*0----*0*0----*0*0----*0*0--------------------------|

Second Guitar solo :

e|------------------------------------------------------|
b|------------------------------------------------------|
g|3-4-3-----------------3-4-3---------------------------|
d|------4---------------------4-------------------------|
a|-------4---5-7-5-4-5---------4-5-7-5-7-9--------------|
e|------------------------------------------------------|

e|------------------------------------------------------|
b|------------------------------------------------------|
g|3-4-3-----------------3-4-3---------------------------|
d|------4---------------------4-------------------------|
a|-------4---5-7-5-4-5---------4-5----------------------|
e|------------------------------------------------------|

Verses:

e|------------------------------------------------------|
b|------------------------------------------------------|
g|------------------------------------------------------|
d|------------------------------------------------------| 
a|-----------------4-4-4-4-5-5-5-5----------------------|
E|----------2-2-2-2---------------5-5-5-5---------------|

Whose cause is good? What time, what neighboehood?

e|------------------------------------------------------|
b|------------------------------------------------------|
g|------------------------------------------------------|
d|------------------------------------------------------| 
a|-----------------4-4-4-4-5-5-5-5----------------------|
E|----------2-2-2-2---------------5-5-5-5---------------|

Fight for peace, fight for freedom

e|------------------------------------------------------|
b|------------------------------------------------------|
g|------------------------------------------------------|
d|------------------------------------------------------| 
a|-----------------4-4-4-4-5-5-5-5----------------------|
E|----------2-2-2-2---------------5-5-5-5---------------|

Break that window for a stupid T.V.

e|------------------------------------------------------|
b|------------------------------------------------------|
g|------------------------------------------------------|
d|------------------------------------------------------| 
a|-----------------4-4-4-4-5-5-5-5----------------------|
E|----------2-2-2-2---------------5-5-5-5---------------|

Throw your pipebomb - Runaway!

Bridge:

first Guitar Rhythmic :

e|------------------------------------------------------|
b|------------------------------------------------------|
g|-----11------11-----11------11------------------------|
d|-----11------11-----11------11------------------------|repeat X4
a|-----9-------9------9-------9-------------------------|
e|*0*0----*0*0----*0*0----*0*0--------------------------|

Second Guitar solo :

e|------------------------------------------------------|
b|------------------------------------------------------|
g|3-4-3-----------------3-4-3---------------------------|
d|------4---------------------4-------------------------|
a|-------4---5-7-5-4-5---------4-5-7-5-7-9--------------|
e|------------------------------------------------------|

e|------------------------------------------------------|
b|------------------------------------------------------|
g|3-4-3-----------------3-4-3---------------------------|
d|------4---------------------4-------------------------|
a|-------4---5-7-5-4-5---------4-5----------------------|
e|------------------------------------------------------|


Verses:

e|------------------------------------------------------|
b|------------------------------------------------------|
g|------------------------------------------------------|
d|------------------------------------------------------| 
a|-----------------4-4-4-4-5-5-5-5----------------------|
E|----------2-2-2-2---------------5-5-5-5---------------|

Out at night,during the day

e|------------------------------------------------------|
b|------------------------------------------------------|
g|------------------------------------------------------|
d|------------------------------------------------------| 
a|-----------------4-4-4-4-5-5-5-5----------------------|
E|----------2-2-2-2---------------5-5-5-5---------------|

When the Bombs go off, what do you say?

e|------------------------------------------------------|
b|------------------------------------------------------|
g|------------------------------------------------------|
d|------------------------------------------------------| 
a|-----------------4-4-4-4-5-5-5-5----------------------|
E|----------2-2-2-2---------------5-5-5-5---------------|

Scared to go out, scared to stay


e|------------------------------------------------------|
b|------------------------------------------------------|
g|------------------------------------------------------|
d|------------------------------------------------------| 
a|-----------------4-4-4-4-5-5-5-5----------------------|
E|----------2-2-2-2---------------5-5-5-5---------------|

Watch your children when they go out to play


Bridge:

first Guitar Rhythmic :

e|------------------------------------------------------|
b|------------------------------------------------------|
g|-----11------11-----11------11------------------------|
d|-----11------11-----11------11------------------------|repeat X4
a|-----9-------9------9-------9-------------------------|
e|*0*0----*0*0----*0*0----*0*0--------------------------|

Second Guitar solo :

e|-------------------------------------------------------|
b|-------------------------11----------------------------|
g|3-4-3~--4-3-6-0-3-3-4-3~3/-----------------------------|
d|-------------------------------------------------------|
a|-------------------------------------------------------|
e|-------------------------------------------------------|

e|-------------------------------------------------------|
b|---------------------------11-11-11-11-11-11-----------|
g|3-4-3~-3-4-3-4~--3-4-3---3/----------------------------|
d|-------------------------------------------------------|
a|-------------------------------------------------------|
e|-------------------------------------------------------|

Verses:

First Guitar Rhythmic:
e|------------------------------------------------------|
b|------------------------------------------------------|
g|------------------------------------------------------|
d|------------------------------------------------------| 
a|-----------------4-4-4-4-5-5-5-5----------------------|
E|----------2-2-2-2---------------5-5-5-5---------------|

I love those fights, i love the rage

Second Guitar solo :

e|------------------------------------------------------|
b|------------------------------------------------------|
g|3~4~--------------------------------------------------|
d|------------------------------------------------------| 
a|------------------------------------------------------|
E|------------------------------------------------------|

First Guitar Rhythmic :

e|------------------------------------------------------|
b|------------------------------------------------------|
g|------------------------------------------------------|
d|------------------------------------------------------| 
a|-----------------4-4-4-4-5-5-5-5----------------------|
E|----------2-2-2-2---------------5-5-5-5---------------|

Make those stiffs, live in fear

e|------------------------------------------------------|
b|------------------------------------------------------|
g|------------------------------------------------------|
d|------------------------------------------------------| 
a|-----------------4-4-4-4-5-5-5-5----------------------|
E|----------2-2-2-2---------------5-5-5-5---------------|

Living in boroughs away from the Public

e|------------------------------------------------------|
b|------------------------------------------------------|
g|------------------------------------------------------|
d|------------------------------------------------------| 
a|-----------------4-4-4-4-5-5-5-5----------------------|
E|----------2-2-2-2---------------5-5-5-5---------------|

Don’t give’em a chance to organize!

Bridge:

first Guitar Rhythmic :

e|------------------------------------------------------|
b|------------------------------------------------------|
g|-----11------11-----11------11------------------------|
d|-----11------11-----11------11------------------------|repeat X4
a|-----9-------9------9-------9-------------------------|
e|*0*0----*0*0----*0*0----*0*0--------------------------|

Second Guitar solo :

e|---------------------------------------------------------11---|
b|---------------------------------------------------------11---|
g|3-4-3~--3-3-4-6----0--3-4-3~-------3-4-3~-(slide down)-11---|
d|--------------------------------------------------------------|
a|-----------------------------4--5-----------------------------|
e|--------------------------------------------------------------|

To much figthing; to much fighting


Verses (repeat x4)

e|------------------------------------------------------|
b|------------------------------------------------------|
g|------------------6-6-6-6-7-7-7-7---------------------|
d|----------4-4-4-4-4-4-4-4-5-5-5-7-7-7-7-7-------------|
a|----------4-4-4-4-4-4-4-4-5-5-5-5-5-5-5-5-------------|
E|----------2-2-2-2-----------------5-5-5-5-------------|

Riot! Riot! Riot

Bridge:

e|---------------------------------------------------|
b|---------------------------------------------------|
g|7-7~6~7-7-7-7-7------------------------------------|
d|7-7~4~7-7-7-7-7-7-7--------------------------------|
a|5-5~4~5-5-5-5-5-7-7--------------------------------|
E|----------------5-5--------------------------------|

e|---------------------------------------------------|
b|---------------------------------------------------|
g|7-7~6~7-7-7-7-7------------------------------------|
d|7-7~4~7-7-7-7-7------------------------------------|
a|5-5~4~5-5-5-5-5------------------------------------|
E|---------------------------------------------------|

Do you want it here!?!


End (repeat x4):

e|------------------------------------------------------|
b|------------------------------------------------------|
g|------------------6-6-6-6-7-7-7-7---------------------|
d|----------4-4-4-4-4-4-4-4-5-5-5-7-7-7-7-7-------------|
a|----------4-4-4-4-4-4-4-4-5-5-5-5-5-5-5-5-------------|
E|----------2-2-2-2-----------------5-5-5-5-------------|

http://www.youtube.com/watch?v=XNoord8k6rA

            
            
Suggest correction
Creating personal tab
Creating personal tab
You can edit any tab online and save it as your Personal.

You can edit, replace or remove any tab part or add personal notes – all changes will be seen only by you.

Personal tabs can be accessed anytime from any device, even offline.
Learn more »
Give kudos to tab author, rate the tab!
1 2 3 4 5
comments
print report bad tab
guest
You may want to rate the tab now too:
select rating
Wanna post a correction for this tab? Suggest correction