Oops, an error
Loading. Please wait.

Fallen Brother tab

by Kreator
874 views 42 this week
no commentswrite comment
1 2 3 4 5
2 more votes to show rating
add to favorites
×
Save as Personal and add changes to this tab that will be seen only by you. Learn more ›
×
You can save this tab as Personal to edit and correct it or add notes. All changes will be seen only by you. Learn more »
launch autoscroll
font size
0
reset
how to read this tab
guitar tuner
edit
Autoscroll
slow
fast
+/-
esc
set tempo
stop
About this tab version
Rhythm guitar parts only. Hope it helps. Was this info helpful? Yes No
[Intro A]

D|--------------------------------|--------------------------------|
A|--------------------------------|--------------------------------|
F|--------------------------------|--------------------------------|
C|--------------------------------|--------------------------------|
G|--------------------------------|--------------------------------|
D|--0-0----0-0-0----0-0----0-0-0--|--0-0----0-0-0----0-0----0-0-0--|
PM  . .    . . .    . .    . . .     . .    . . .    . .    . . .

[Intro B]

D|--------------------------------|--------------------------------|
A|--------------------------------|--------------------------------|
F|--------------------------------|--------------------------------|
C|--------------------------------|--------------------------------|
G|--------------------------------|--------------------------------|
D|--0-0----0-0-0----0-0----0-0-0--|--0-0----0-0-0----0-0----0-0-0--| 
PM  . .    . . .    . .    . . .     . .    . . .    . .    . . .

D|--------------------------------|--------------------------------|
A|--------------------------------|--------------------------------|
F|--------------------------------|--------------------------------|
C|--------------------------------|--------------------------------|
G|--6-6----6-6-6----6-6----6-6-6--|--6-6----6-6-6----6-6----6-6-6--| 
D|--------------------------------|--------------------------------|
PM  . .    . . .    . .    . . .     . .    . . .    . .    . . .

D|--------------------------------|--------------------------------|
A|--------------------------------|--------------------------------|
F|--------------------------------|--------------------------------|
C|--------------------------------|--------------------------------|
G|--------------------------------|--------------------------------|
D|--0-0----0-0-0----0-0----0-0-0--|--0-0----0-0-0----0-0----0-0-0--| 
PM  . .    . . .    . .    . . .     . .    . . .    . .    . . .

D|--------------------------------|------------------|
A|--------------------------------|------------------|
F|--------------------------------|------------------|
C|--------------------------------|--2~-------2~-----|
G|--------------------------------|------------------|
D|--1-1----1-1-1----1-1----1-1-1--|-----0-2-3----1~--| 
PM  . .    . . .    . .    . . .        . . . 

[Verse]

D|--------------------------------|--------------------------------|
A|--------------------------------|--------------------------------|
F|--------------------------------|--------------------------------|
C|--------------------------------|--------------------------------|
G|--------------------------------|--------------------------------|
D|--0-0----0-0-0----0-0----0-0-0--|--0-0----0-0-0----0-0----0-0-0--| 
PM  . .    . . .    . .    . . .     . .    . . .    . .    . . .

D|---------------------------------|
A|---------------------------------|
F|---------------------------------|
C|--2-----4-3-----2----------------|
G|--2-----2-1-----2-3---5---7---5--|
D|--0-0-0-----0-0-0-2-0-3-0-5-0-3--|
PM    . .     . .     .   .   . 

D|--------------------------------|--------------------------------|
A|--------------------------------|--------------------------------|
F|--------------------------------|--------------------------------|
C|--------------------------------|--------------------------------|
G|--------------------------------|--------------------------------|
D|--0-0----0-0-0----0-0----0-0-0--|--0-0----0-0-0----0-0----0-0-0--|
PM  . .    . . .    . .    . . .     . .    . . .    . .    . . . 

D|---------------------------------|
A|---------------------------------|
F|---------------------------------|
C|--2-----4-3-----2----------------|
G|--2-----2-1-----2-3---5---7---5--|
D|--0-0-0-----0-0-0-2-0-3-0-5-0-3--|
PM    . .     . .     .   .   . 

D|--------------------------------|--------------------------------|
A|--------------------------------|--------------------------------|
F|--------------------------------|--------------------------------|
C|--------------------------------|--------------------------------|
G|--0-0----0-0-0----0-0----0-0-0--|--0-0----0-0-0----0-0----0-0-0--| 
D|--------------------------------|--------------------------------|
PM  . .    . . .    . .    . . .     . .    . . .    . .    . . .
 
D|----------------------------------|
A|----------------------------------|
F|--2-----4-3-----2-----------------|
C|--2-----2-1-----2-3---5---7-------| 
G|--0-0-0-----0-0-0-2-0-3-0-5-0-4~--|
D|----------------------------------|
PM    . .     . .     .   .   . 

D|--------------------------------|--------------------------------|
A|--------------------------------|--------------------------------|
F|--------------------------------|--------------------------------|
C|--------------------------------|--------------------------------|
G|--------------------------------|--------------------------------|
D|--0-0----0-0-0----0-0----0-0-0--|--0-0----0-0-0----0-0----0-0-0--| 
PM  . .    . . .    . .    . . .     . .    . . .    . .    . . .

D|----------------------------------------|
A|----------------------------------------|
F|----------------------------------2-----|
C|--5---5-5-5-5-5-5-5-5----4~-2-4-5---3~--|
G|--3---3-3-3-3-3-3-3-3-------------------|
D|----------------------------------------|
PM      . . . . . . . .    PH         PH

[Chorus]

D|------------------------------------------|
A|------------------------------------------|
F|------------------------------------------|
C|--2----2-2--5------------7--5----4--2-----|
G|--2----0h2--3----5--5----5--3----2--0--3--|
D|--0--------------3--2------------------1--|(2x)

[Verse 2]

D|--------------------------------|--------------------------------|
A|--------------------------------|--------------------------------|
F|--------------------------------|--------------------------------|
C|--------------------------------|--------------------------------|
G|--------------------------------|--------------------------------|
D|--0-0----0-0-0----0-0----0-0-0--|--0-0----0-0-0----0-0----0-0-0--| 
PM  . .    . . .    . .    . . .     . .    . . .    . .    . . .

D|---------------------------------|
A|---------------------------------|
F|---------------------------------|
C|--2-----4-3-----2----------------|
G|--2-----2-1-----2-3---5---7---5--|
D|--0-0-0-----0-0-0-2-0-3-0-5-0-3--|
PM    . .     . .     .   .   . 

D|--------------------------------|--------------------------------|
A|--------------------------------|--------------------------------|
F|--------------------------------|--------------------------------|
C|--------------------------------|--------------------------------|
G|--------------------------------|--------------------------------|
D|--0-0----0-0-0----0-0----0-0-0--|--0-0----0-0-0----0-0----0-0-0--| 
PM  . .    . . .    . .    . . .     . .    . . .    . .    . . .

D|---------------------------------|
A|---------------------------------|
F|---------------------------------|
C|--2-----4-3-----2----------------|
G|--2-----2-1-----2-3---5---7---5--|
D|--0-0-0-----0-0-0-2-0-3-0-5-0-3--|
PM    . .     . .     .   .   . 

D|--------------------------------|--------------------------------|
A|--------------------------------|--------------------------------|
F|--------------------------------|--------------------------------|
C|--------------------------------|--------------------------------|
G|--0-0----0-0-0----0-0----0-0-0--|--0-0----0-0-0----0-0----0-0-0--| 
D|--------------------------------|--------------------------------|
PM  . .    . . .    . .    . . .     . .    . . .    . .    . . .

D|----------------------------------|
A|----------------------------------|
F|--2-----4-3-----2-----------------|
C|--2-----2-1-----2-3---5---7-------| 
G|--0-0-0-----0-0-0-2-0-3-0-5-0-4~--|
D|----------------------------------|
PM    . .     . .     .   .   . PH

D|--------------------------------|--------------------------------|
A|--------------------------------|--------------------------------|
F|--------------------------------|--------------------------------|
C|--------------------------------|--------------------------------|
G|--------------------------------|--------------------------------|
D|--0-0----0-0-0----0-0----0-0-0--|--0-0----0-0-0----0-0----0-0-0--| 
PM  . .    . . .    . .    . . .     . .    . . .    . .    . . .

D|----------------------------------------|
A|----------------------------------------|
F|----------------------------------2-----|
C|--5---5-5-5-5-5-5-5-5----4~-2-4-5---3~--|
G|--3---3-3-3-3-3-3-3-3-------------------|
D|----------------------------------------|
PM      . . . . . . . .    PH         PH

[Chorus]

D|------------------------------------------|
A|------------------------------------------|
F|------------------------------------------|
C|--2----2-2--5------------7--5----4--2-----|
G|--2----0h2--3----5--5----5--3----2--0--3--|
D|--0--------------3--2------------------1--|(2x)

[SOLO]

D|--------------------------------|----------------------------|
A|--------------------------------|----------------------------|
F|--------------------------------|----------------------------|
C|--------------------------------|----------------------------|
G|--------------------------------|-------------------------4--|
D|--2-2----2-2-2----2-2----2-2-2--|--2-2----2-2-2----2-2-2--2--| 
PM  . .    . . .    . .    . . .     . .    . . .    . . .

D|---------------------------------|
A|---------------------------------|
F|---------------------------------|
C|--2-----4-3-----2----------------|
G|--2-----2-1-----2-3---5---7---5--|
D|--0-0-0-----0-0-0-2-0-3-0-5-0-3--|
PM    . .     . .     .   .   . 

D|--------------------------------|----------------------------|
A|--------------------------------|----------------------------|
F|--------------------------------|----------------------------|
C|--------------------------------|----------------------------|
G|--------------------------------|-------------------------4--|
D|--2-2----2-2-2----2-2----2-2-2--|--2-2----2-2-2----2-2-2--2--|
PM  . .    . . .    . .    . . .     . .    . . .    . . . 

D|---------------------------------|
A|---------------------------------|
F|---------------------------------|
C|--2-----4-3-----2----------------|
G|--2-----2-1-----2-3---5---7---5--|
D|--0-0-0-----0-0-0-2-0-3-0-5-0-3--|
PM    . .     . .     .   .   . 

D|--------------------------------|----------------------------|
A|--------------------------------|----------------------------|
F|--------------------------------|----------------------------|
C|--------------------------------|----------------------------|
G|--------------------------------|-------------------------3--|
D|--1-1----1-1-1----1-1----1-1-1--|--1-1----1-1-1----1-1-1--1--|
PM  . .    . . .    . .    . . .     . .    . . .    . . . 

D|---------------------------------|
A|---------------------------------|
F|---------------------------------|
C|--2-----4-3-----2----------------|
G|--2-----2-1-----2-3---5---7---5--|
D|--0-0-0-----0-0-0-2-0-3-0-5-0-3--|
PM    . .     . .     .   .   . 

D|--------------------------------|--------------------------------|
A|--------------------------------|--------------------------------|
F|--------------------------------|--------------------------------|
C|--------------------------------|--------------------------------|
G|--5-5----5-5-5----5-5----5-5-5--|--5-5----5-5-5----5-5----5-5-5--| 
D|--------------------------------|--------------------------------|
PM  . .    . . .    . .    . . .     . .    . . .    . .    . . .

D|-------------------------------------------------|
A|-------------------------------------------------|
F|-------------------------------------------------|
C|---------------------------------2~-------2~-----|
G|-------------------------------------------------|
D|--1-1----1-1-1----1-1----1-1-1------0-2-3----1~--| 
PM  . .    . . .    . .    . . .  PH  . . . PH 

[Bridge]

D|---------------------------------------|-------------------------------------|
A|---------------------------------------|-------------------------------------|
F|---------------------------------------|-------------------------------------|
C|--2~--2h3\1~--1/2-2~---2/3~-3~---3\0-0-|-0h2~-2~---2\1~-1~---1/2~-2~---2/3~--|
G|---------------------------------------|-------------------------------------|
D|---------------------------------------|-------------------------------------|

D|--------------------|
A|--------------------|
F|--------------------|
C|---2~--------2~-----|
G|--------------------|
D|------0-2-3-----1~--| 
PM   PH . . .  PH

[Chorus]

D|------------------------------------------|
A|------------------------------------------|
F|------------------------------------------|
C|--2----2-2--5------------7--5----4--2-----|
G|--2----0-2--3----5--5----5--3----2--0--3--|
D|--0--------------3--2------------------1--|(2x)

[Intro B ]

D|--------------------------------|--------------------------------|
A|--------------------------------|--------------------------------|
F|--------------------------------|--------------------------------|
C|--------------------------------|--------------------------------|
G|--------------------------------|--------------------------------|
D|--0-0----0-0-0----0-0----0-0-0--|--0-0----0-0-0----0-0----0-0-0--| 
PM  . .    . . .    . .    . . .     . .    . . .    . .    . . .

D|--------------------------------|--------------------------------|
A|--------------------------------|--------------------------------|
F|--------------------------------|--------------------------------|
C|--------------------------------|--------------------------------|
G|--6-6----6-6-6----6-6----6-6-6--|--6-6----6-6-6----6-6----6-6-6--| 
D|--------------------------------|--------------------------------|
PM  . .    . . .    . .    . . .     . .    . . .    . .    . . .
 
D|--------------------------------|--------------------------------|
A|--------------------------------|--------------------------------|
F|--------------------------------|--------------------------------|
C|--------------------------------|--------------------------------|
G|--------------------------------|--------------------------------|
D|--0-0----0-0-0----0-0----0-0-0--|--0-0----0-0-0----0-0----0-0-0--| 
PM  . .    . . .    . .    . . .     . .    . . .    . .    . . .

D|-------------------------------------------------|
A|-------------------------------------------------|
F|-------------------------------------------------|
C|---------------------------------2~-------2~-----|
G|-------------------------------------------------|
D|--1-1----1-1-1----1-1----1-1-1------0-2-3----1~--| 
PM  . .    . . .    . .    . . .    


[Outro]

D|--------------------------------------|
A|--------------------------------------|
F|--------------------------------------|
C|--2~-------2~--------2~-------2~------|
G|--------------------------------------|
D|-----0-2-3-----0-2-3----0-2-3-----1~--|
PM  PH . . .  PH . . . PH . . . PH

D|------------------------|------------------------|
A|------------------------|------------------------|
F|------------------------|------------------------|
C|--2-----2-------4-----3-|-------2-------4-----7--|
G|--2-----2-------2-----1-|-------2-------2-----5--|
D|--0-0-0-0-0-0-0---0-0---|-0-0-0-0-0-0-0---0-0----|

D|---------------------------------|----------------|
A|---------------------------------|----------------|
F|---------------------------------|----------------|
C|--2~-------2~--------2~-------2~-|-----2-2--------|
G|---------------------------------|---2---2--------|
D|-----0-2-3-----0-2-3----0-2-3----|-1-----0--------|
PM  PH . . . PH  . . . PH . . . PH  (Let Ring)

************************************

| h   Hammer-on
| p   Pull-off
| /   Slide up
| \   Slide down
| ~   Vibrato
| PM  Palm mute
| PH  Pinch Harmonic

************************************

            
            
Suggest correction
Creating personal tab
Creating personal tab
You can edit any tab online and save it as your Personal.

You can edit, replace or remove any tab part or add personal notes – all changes will be seen only by you.

Personal tabs can be accessed anytime from any device, even offline.
Learn more »
Give kudos to tab author, rate the tab!
1 2 3 4 5
comments
print report bad tab
guest
You may want to rate the tab now too:
select rating
Wanna post a correction for this tab? Suggest correction