Oops, an error
Loading. Please wait.
We have an official People Of The Lie tab made by UG professional guitarists. Check out the tab »
×
by Kreator
8,833 views 36 this week
no commentswrite comment
1 2 3 4 5
x 3
add to favorites
×
Save as Personal and add changes to this tab that will be seen only by you. Learn more ›
×
You can save this tab as Personal to edit and correct it or add notes. All changes will be seen only by you. Learn more »
launch autoscroll
font size
0
reset
how to read this tab
guitar tuner
backing track
0:00
0:00
edit
Autoscroll
slow
fast
+/-
esc
set tempo
stop
Author
People of the lie
Kreator
Coma of Souls

Transcribe by madman_ariel

Standard Tuning (EADGBe)

Intro
|-----------------------------------------------------------------------|
|-----------------------------------------------------------------------|
|-----------------------------------------------------------------------|
|------6-2---2-3-----2---4-5---4-4-4-5---5---7----7-6-------------------|
|--9-8-4-2---------5-----------2-2-2-3-----5------5-4----8-7------------|
|--7-6---0-----------------------------------------------6-5------------|
   * * *                       * * *

|-----------------------------------------------------------------------|
|-----------------------------------------------------------------------|
|-----------------------------------------------------------------------|
|--2---2-3-----2---4-5----4-4-4-5---5---7----7-6---2--------------------|
|--2---------5------------2-2-2-3-----5------5-4---2--------------------|
|--0-----------------------------------------------0--------------------|
                           * * *
Pre-Verse
|-----------------------------------------------------------------------|
|-----------------------------------------------------------------------|
|-----------------------------------------------------------------------|
|---3-----4-----------------3/4---3---2---------------------------------|
|---3-----4-----------------1/2---3---2---------------------------------|
|---1-0-0-2-0-0-0-0-0-0-0-0-----0-1---0-0-0-0-0-0-0-0-0-0-0-0-0-0-0-----|
      * *   * * * * * * * *     *       * * * * * * * * * * * * * *
|-----------------------------------------------------------------------|
|-----------------------------------------------------------------------|
|-----------------------------------------------------------------------|
|---3-----4-----------------3/4---3---2---------------------------------|
|---3-----4-----------------1/2---3---2---------------------------------|
|---1-0-0-2-0-0-0-0-0-0-0-0-----0-1---0-0-0-0-0-0-0-0-0-0-0-0-0-0-0-----|
      * *   * * * * * * * *     *       * * * * * * * * * * * * * *

(Guitar 2 comes)
|--------------|
|--------------|
|--------------|
|-3-3-3-3-3-3--|
|-3-3-3-3-3-3--|
|-1-1-1-1-1-1--|
  * * * * * *

Verse
|-----------------------------------------------------------------------|
|-----------------------------------------------------------------------|
|-----------------------------------------------------------------------|
|---3-----4-----------------3/4---3---2---------------------------------|
|---3-----4-----------------1/2---3---2---------------------------------|
|---1-0-0-2-0-0-0-0-0-0-0-0-----0-1---0-0-0-0-0-0-0-0-0-0-0-0-0-0-0-----|
      * *   * * * * * * * *     *       * * * * * * * * * * * * * *
|-----------------------------------------------------------------------|
|-----------------------------------------------------------------------|
|-----------------------------------------------------------------------|
|---3-----4-----------------3/4---3---2---------------------------------|
|---3-----4-----------------1/2---3---2---------------------------------|
|---1-0-0-2-0-0-0-0-0-0-0-0-----0-1---0-0-0-0-0-0-0-0-0-0-0-0-0-0-0-----|
      * *   * * * * * * * *     *       * * * * * * * * * * * * * *
|-----------------------------------------------------------------------|
|-----------------------------------------------------------------------|
|-----------------------------------------------------------------------|
|---3-----4-----------------3/4---3---2---------------------------------|
|---3-----4-----------------1/2---3---2---------------------------------|
|---1-0-0-2-0-0-0-0-0-0-0-0-----0-1---0-0-0-0-0-0-0-0-0-0-0-0-0-0-0-----|
      * *   * * * * * * * *     *       * * * * * * * * * * * * * *
|-----------------------------------------------------------------------|
|-----------------------------------------------------------------------|
|-----------------------------------------------------------------------|
|---3-----4-----------------3/4---3---2---------------------------------|
|---3-----4-----------------1/2---3---2---------------------------------|
|---1-0-0-2-0-0-0-0-0-0-0-0-----0-1---0-0-0-0-0-0-0-0-0-0-0-0-0-0-0-----|
      * *   * * * * * * * *     *       * * * * * * * * * * * * * *
Chorus
|-------------------------------------------------------------------------|
|-------------------------------------------------------------------------|
|--------------------4----------------------------------------------------|
|---3-2------5-------4------4---3----2------------------------------------|
|---3-2------5-------2------4---3----2------------------------------------|
|---1-0------3--------------2---1----0------------------------------------|

Verse 2


|-----------------------------------------------------------------------|
|-----------------------------------------------------------------------|
|-----------------------------------------------------------------------|
|---3-----4-----------------3/4---3---2---------------------------------|
|---3-----4-----------------1/2---3---2---------------------------------|
|---1-0-0-2-0-0-0-0-0-0-0-0-----0-1---0-0-0-0-0-0-0-0-0-0-0-0-0-0-0-----|
      * *   * * * * * * * *     *       * * * * * * * * * * * * * *

|-----------------------------------------------------------------------|
|-----------------------------------------------------------------------|
|-----------------------------------------------------------------------|
|---3-----4-----------------3/4---3---2---------------------------------|
|---3-----4-----------------1/2---3---2---------------------------------|
|---1-0-0-2-0-0-0-0-0-0-0-0-----0-1---0-0-0-0-0-0-0-0-0-0-0-0-0-0-0-----|
      * *   * * * * * * * *     *       * * * * * * * * * * * * * *

|-----------------------------------------------------------------------|
|-----------------------------------------------------------------------|
|-----------------------------------------------------------------------|
|---3-----4-----------------3/4---3---2---------------------------------|
|---3-----4-----------------1/2---3---2---------------------------------|
|---1-0-0-2-0-0-0-0-0-0-0-0-----0-1---0-0-0-0-0-0-0-0-0-0-0-0-0-0-0-----|
      * *   * * * * * * * *     *       * * * * * * * * * * * * * *

|-----------------------------------------------------------------------|
|-----------------------------------------------------------------------|
|-----------------------------------------------------------------------|
|---3-----4-----------------3/4---3---2---------------------------------|
|---3-----4-----------------1/2---3---2---------------------------------|
|---1-0-0-2-0-0-0-0-0-0-0-0-----0-1---0-0-0-0-0-0-0-0-0-0-0-0-0-0-0-----|
      * *   * * * * * * * *     *       * * * * * * * * * * * * * *

Chorus 2

|-------------------------------------------------------------------------|
|-------------------------------------------------------------------------|
|--------------------4----------------------------------------------------|
|---3-2------5-------4------4---3-----------------------------------------|
|---3-2------5-------2------4---3-----------------------------------------|
|---1-0------3--------------2---1-----------------------------------------|

Riff Before Drum Solo

|---------------------------------------------------------------------------|
|---------------------------------------------------------------------------|
|----------------------------------------------------------------4----------|
|-4--------------------7--------------------4--------------------4----------|
|-4--------------------7--------------------4--------------------2----------|
|-2--2-2-2-2-2-2-2-2-2-5--5-5-5-5-5-5-5-5-5-6--6-6-6-6-6-6-6-6-6------------|
     * * * * * * * * *    * * * * * * * * *    * * * * * * * * *

Solo Rhythm
|-----------------------------------------------------------------------|
|-----------------------------------------------------------------------|
|-----------------------------------------------------------------------|
|---5-----5-----------------6-5-----------------------------------------|
|---5-----5-----------------4-3--6-5------------------------------------|
|---3-3-3-3-3-3-3-3-3-3-3-3------4-3--3-3-3-3-3-3-3-3-3-3-3-3-3-3-------|
      * *   * * * * * * * *           * * * * * * * * * * * * * *
|-----------------------------------------------------------------------|
|-----------------------------------------------------------------------|
|-----------------------------------------------------------------------|
|---5-----5-----------------6-5-----------------------------------------|
|---5-----5-----------------4-3--6-5------------------------------------|
|---3-3-3-3-3-3-3-3-3-3-3-3------4-3--3-3-3-3-3-3-3-3-3-3-3-3-3-3-------|
      * *   * * * * * * * *           * * * * * * * * * * * * * *
|-----------------------------------------------------------------------|
|-----------------------------------------------------------------------|
|-----------------------------------------------------------------------|
|---9-----9----------------10-9-----------------------------------------|
|---9-----9-----------------8-7-10-9------------------------------------|
|---7-7-7-7-7-7-7-7-7-7-7-7------8-7--7-7-7-7-7-7-7-7-7-7-7-7-7-7-------|
      * *   * * * * * * * *           * * * * * * * * * * * * * *

|-----------------------------------------------------------------------|
|-----------------------------------------------------------------------|
|-----------------------------------------------------------------------|
|---9-----9----------------10-9-----------------------------------------|
|---9-----9-----------------8-7-10-9------------------------------------|
|---7-7-7-7-7-7-7-7-7-7-7-7------8-7--7-7-7-7-7-7-7-7-7-7-7-7-7-7-------|
      * *   * * * * * * * *           * * * * * * * * * * * * * *
|-----------------------------------------------------------------------|
|-----------------------------------------------------------------------|
|---7-----7-----------------8-7-----------------------------------------|
|---7-----7-----------------6-5-8-7-------------------------------------|
|---5-5-5-5-5-5-5-5-5-5-5-5-----6-5--5-5-5-5-5-5-5-5-5-5-5-5-5-5--------|
|-----------------------------------------------------------------------|
      * *   * * * * * * * *          * * * * * * * * * * * * * *
|-----------------------------------------------------------------------|
|-----------------------------------------------------------------------|
|---7-----7-----------------8-7-----------------------------------------|
|---7-----7-----------------6-5-8-7-------------------------------------|
|---5-5-5-5-5-5-5-5-5-5-5-5-----6-5--5-5-5-5-5-5-5-5-5-5-5-5-5-5--------|
|-----------------------------------------------------------------------|
      * *   * * * * * * * *          * * * * * * * * * * * * * *

Interlude

Guitar 1
|------------------------------------------------------------------------|
|------------------------------------------------------------------------|
|------------------------------------------------------------------------|
|---------------------------------9--------------------------------------|
|-------7-8-10-8-----7-8-10-8-8-7----------------------------------------|
|---0-0----------0-0-----------------------------------------------------|
    * *          * *
|------------------------------------------------------------------------|
|------------------------------------------------------------------------|
|------------------------------------------------------------------------|
|---------------------------------9--------------------------------------|
|-------7-8-10-8-----7-8-10-8-8-7----------------------------------------|
|---0-0----------0-0-----------------------------------------------------|
    * *          * *
|------------------------------------------------------------------------|
|------------------------------------------------------------------------|
|------------------------------------------------------------------------|
|---------------------------------9--------------------------------------|
|-------7-8-10-8-----7-8-10-8-8-7----------------------------------------|
|---0-0----------0-0-----------------------------------------------------|
    * *          * *
|------------------------------------------------------------------------|
|------------------------------------------------------------------------|
|------------------------------------------------------------------------|
|------------------------------------------------------------------------|
|-------7-8-10-8-----7-8-10-8-(8\)---------------------------------------|
|---0-0----------0-0-----------------------------------------------------|
    * *          * *

Guitar 2
|------------------------------------------------------------------------|
|------------------------------------------------------------------------|
|--------------------------------------11--------------------------------|
|-------9-10-12-10-----9-10-12-10-10-9-----------------------------------|
|------------------------------------------------------------------------|
|---0-0------------0-0---------------------------------------------------|
    * *            * *
|------------------------------------------------------------------------|
|------------------------------------------------------------------------|
|--------------------------------------11--------------------------------|
|-------9-10-12-10-----9-10-12-10-10-9-----------------------------------|
|------------------------------------------------------------------------|
|---0-0------------0-0---------------------------------------------------|
    * *            * *
|------------------------------------------------------------------------|
|------------------------------------------------------------------------|
|--------------------------------------11--------------------------------|
|-------9-10-12-10-----9-10-12-10-10-9-----------------------------------|
|------------------------------------------------------------------------|
|---0-0------------0-0---------------------------------------------------|
    * *            * *
|------------------------------------------------------------------------|
|------------------------------------------------------------------------|
|------------------------------------------------------------------------|
|-------9-10-12-10-----9-10-12-10-(10\)----------------------------------|
|------------------------------------------------------------------------|
|---0-0------------0-0---------------------------------------------------|
    * *            * *

Verse 3

|-----------------------------------------------------------------------|
|-----------------------------------------------------------------------|
|-----------------------------------------------------------------------|
|---3-----4-----------------3/4---3---2---------------------------------|
|---3-----4-----------------1/2---3---2---------------------------------|
|---1-0-0-2-0-0-0-0-0-0-0-0-----0-1---0-0-0-0-0-0-0-0-0-0-0-0-0-0-0-----|
      * *   * * * * * * * *     *       * * * * * * * * * * * * * *

|-----------------------------------------------------------------------|
|-----------------------------------------------------------------------|
|-----------------------------------------------------------------------|
|---3-----4-----------------3/4---3---2---------------------------------|
|---3-----4-----------------1/2---3---2---------------------------------|
|---1-0-0-2-0-0-0-0-0-0-0-0-----0-1---0-0-0-0-0-0-0-0-0-0-0-0-0-0-0-----|
      * *   * * * * * * * *     *       * * * * * * * * * * * * * *

|-----------------------------------------------------------------------|
|-----------------------------------------------------------------------|
|-----------------------------------------------------------------------|
|---3-----4-----------------3/4---3---2---------------------------------|
|---3-----4-----------------1/2---3---2---------------------------------|
|---1-0-0-2-0-0-0-0-0-0-0-0-----0-1---0-0-0-0-0-0-0-0-0-0-0-0-0-0-0-----|
      * *   * * * * * * * *     *       * * * * * * * * * * * * * *

|-----------------------------------------------------------------------|
|-----------------------------------------------------------------------|
|-----------------------------------------------------------------------|
|---3-----4-----------------3/4---3---2---------------------------------|
|---3-----4-----------------1/2---3---2---------------------------------|
|---1-0-0-2-0-0-0-0-0-0-0-0-----0-1---0-0-0-0-0-0-0-0-0-0-0-0-0-0-0-----|
      * *   * * * * * * * *     *       * * * * * * * * * * * * * *

Chorus 3
|-------------------------------------------------------------------------|
|-------------------------------------------------------------------------|
|--------------------4----------------------------------------------------|
|---3-2------5-------4------4---3-----------------------------------------|
|---3-2------5-------2------4---3-----------------------------------------|
|---1-0------3--------------2---1-----------------------------------------|

|-------------------------------------------------------------------------|
|-------------------------------------------------------------------------|
|--------------------4----------------------------------------------------|
|---3-2------5-------4------4---3-----------------------------------------|
|---3-2------5-------2------4---3-----------------------------------------|
|---1-0------3--------------2---1-----------------------------------------|

|-------------------------------------------------------------------------|
|-------------------------------------------------------------------------|
|--------------------4----------------------------------------------------|
|---3-2------5-------4------4---3-----------------------------------------|
|---3-2------5-------2------4---3-----------------------------------------|
|---1-0------3--------------2---1-----------------------------------------|

|-------------------------------------------------------------------------|
|-------------------------------------------------------------------------|
|--------------------4----------------------------------------------------|
|---3-2------5-------4------4---3-----------------------------------------|
|---3-2------5-------2------4---3-----------------------------------------|
|---1-0------3--------------2---1-----------------------------------------|

|-------------------------------------------------------------------------|
|-------------------------------------------------------------------------|
|-------------------------------------------------------------------------|
|---3-2----------------(2)------------------------------------------------|
|---3-2----------------(2)------------------------------------------------|
|---1-0----------------(0)------------------------------------------------|

End


This song kick asses
Enjoy
and Rate!

            
            
Suggest correction
Creating personal tab
Creating personal tab
You can edit any tab online and save it as your Personal.

You can edit, replace or remove any tab part or add personal notes – all changes will be seen only by you.

Personal tabs can be accessed anytime from any device, even offline.
Learn more »
Give kudos to tab author, rate the tab!
1 2 3 4 5
comments
print report bad tab
guest
You may want to rate the tab now too:
select rating
Wanna post a correction for this tab? Suggest correction