Oops, an error
Loading. Please wait.

Terrible Certainty tab

version 2
version 2

Whole song

Interactive

by Kreator
5,412 views 3 this week
no commentswrite comment
1 2 3 4 5
x 4
add to favorites
×
Save as Personal and add changes to this tab that will be seen only by you. Learn more ›
×
You can save this tab as Personal to edit and correct it or add notes. All changes will be seen only by you. Learn more »
launch autoscroll
font size
0
reset
how to read this tab
guitar tuner
edit
Autoscroll
slow
fast
+/-
esc
set tempo
stop
Author
Terrible Certainty
Kreator
Standard Tuning(EADGBe)
Transcribed by Madman_ariel

This is probably my favorite song ever 
and the only tab that there is here is very inaccurate.
So heres my version
it may not be 100% accurate but it sounds really good to me.



Intro(8x)
|--------------------------------------------------|
|--------------------------------------------------|
|--------------------------------------------------|
|------------------7-6----4-----4---------5--------|
|-6-----6----------5-4-6--2-2-2-2-2-2-3-3-3--5-4---|
|-4-4-4-4-4-4-4-4------4---------------------3-2---|
    * *   * * * *           * *   * * * *

|--------|
|--------|
|--------|
|-6------|
|-6------|
|-4------|


Riff 1(3x)
|------------------------------------|
|------------------------------------|
|------------------------------------|
|--------------------------------10--|
|-----5---6---5-------10-----9-------|
|-0-0---0---0---0-0-0-----0-----0----|
  * *   *   *   * * *     *     *

|-----------------------------------|
|-----------------------------------|
|-----------------------------------|
|-----------------------------------|
|-------5---6---5---3---2-----------|
|-0-0-0---0---0---0---0---0-4-0-3-0-|
  * * *   *   *   *   *   *   *   *

|------------------------------------|
|------------------------------------|
|------------------------------------|
|--------------------------------10--|
|-----5---6---5-------10-----9-------|
|-0-0---0---0---0-0-0-----0-----0----|
  * *   *   *   * * *     *     *

|----------------------------------|
|----------------------------------|
|----------------------------------|
|---------------10---9---7--9~-----|
|-------5---6----------------------|
|-0-0-0---0---0----0---0-----------|
  * * *   *   *    *   * 

Verse Riff(2x)
|---------------------------------------------------|
|---------------------------------------------------|
|---------------------------------------------------|
|------------------------------------------------7--|
|-------------------------------------------6-5-----|
|-0--0-0-5-7-0--0--0-0-5-7-0--0--0-0-5-7-0----------|
  *  * * * * *  *  * * * * *  *  * * * * *  

|-----------------------------------------------------|
|-----------------------------------------------------|
|-----------------------------------------------------|
|-----------------------------------------------------|
|-------------------------------------------8-7-8-7---|
|-0--0-0-5-7-0--0--0-0-5-7-0--0--0-0-5-7-0------------|
  *  * * * * *  *  * * * * *  *  * * * * *  

Verse Riff 2

|------------------------------------------------------|
|------------------------------------------------------|
|------------------------------------------------------|
|----------------------------------------------4-3-----|
|-3--3-3-5-6-3--3--3-3-5-6-3--3--3--3-3-5-6-3------4---|
|------------------------------------------------------|
  *  * * * * *  *  * * * * *  *  *  * * * * *
|------------------------------------------------------|
|------------------------------------------------------|
|------------------------------------------------------|
|-------------------------------------------------8-8--|
|-3--3-3-5-6-3--3--3-3-5-6-3--3--3--3-3-5-6-3--6--6-6--|
|------------------------------------------------------|
  *  * * * * *  *  * * * * *  *  *  * * * * *

|---------------------------------------------------|
|---------------------------------------------------|
|---------------------------------------------------|
|------------------------------------------------7--|
|-------------------------------------------6-5-----|
|-0--0-0-5-7-0--0--0-0-5-7-0--0--0-0-5-7-0----------|
  *  * * * * *  *  * * * * *  *  * * * * *  

|---------------------------------------------------|
|---------------------------------------------------|
|---------------------------------------------------|
|-------------------------------------------8-------|
|-------------------------------------------6--8----|
|-0--0-0-5-7-0--0--0-0-5-7-0--0--0-0-5-7-0-----6----|
  *  * * * * *  *  * * * * *  *  * * * * *  

Chorus Riff(2x)
|------------------------------------|
|------------------------------------|
|------------------------------------|
|--------------------------------10--|
|-----5---6---5-------10-----9-------|
|-0-0---0---0---0-0-0-----0-----0----|
  * *   *   *   * * *     *     *

|-----------------------------------|
|-----------------------------------|
|-----------------------------------|
|-----------------------------------|
|-------5---6---5---3---2-----------|
|-0-0-0---0---0---0---0---0-4-0-3-0-|
  * * *   *   *   *   *   *   *   *

|------------------------------------|
|------------------------------------|
|------------------------------------|
|--------------------------------10--|
|-----5---6---5-------10-----9-------|
|-0-0---0---0---0-0-0-----0-----0----|
  * *   *   *   * * *     *     *

|----------------------------------|
|----------------------------------|
|----------------------------------|
|---------------10---9---7--9~-----|
|-------5---6----------------------|
|-0-0-0---0---0----0---0-----------|
  * * *   *   *    *   * 

Solo 1 Rhythm
|------------------------------------------------|
|------------------------------------------------|
|-----------------------------------------5------|
|-------------3-----------3-----------5-4-3------|  X4
|-0-0-0-0-0-0-1-0-0-0-0-0-1-0-0-0-0-0-3-2--------|
|------------------------------------------------|
  * * * * * *   * * * * *   * * * * *

|-------------------------------------------------|
|-------------------------------------------------|
|-------------------------------------------------|
|-------------------------------------------------|
|-2-----------3-----------3-----------4-----------|
|-0-0-0-0-0-0-1-0-0-0-0-0-1-0-0-0-0-0-2-----------|
    * * * * *   * * * * *   * * * * *


|-------------------------------------------------|
|-------------------------------------------------|
|-------------------------------------------------|
|-------------------------------------------5-----|
|-2-----------3-----------3-----------5--4--3-----|
|-0-0-0-0-0-0-1-0-0-0-0-0-1-0-0-0-0-0-3--2--------|
    * * * * *   * * * * *   * * * * *

|-------------------------------------------------|
|-------------------------------------------------|
|-------------------------------------------------|
|-------------------------------------------------|
|-2-----------3-----------3-----------4-----------|
|-0-0-0-0-0-0-1-0-0-0-0-0-1-0-0-0-0-0-2-----------|
    * * * * *   * * * * *   * * * * *


|-------------------------------------------------|
|-------------------------------------------------|
|-------------------------------------------------|
|-------------------------------------------5-----|
|-2-----------3-----------3-----------5--4--3-----|
|-0-0-0-0-0-0-1-0-0-0-0-0-1-0-0-0-0-0-3--2--------|
    * * * * *   * * * * *   * * * * *

Solo 2 Rhythm(2x)
|------------------------------------|
|------------------------------------|
|------------------------------------|
|--------------------------------10--|
|-----5---6---5-------10-----9-------|
|-0-0---0---0---0-0-0-----0-----0----|
  * *   *   *   * * *     *     *

|-----------------------------------|
|-----------------------------------|
|-----------------------------------|
|-----------------------------------|
|-------5---6---5---3---2-----------|
|-0-0-0---0---0---0---0---0-4-0-3-0-|
  * * *   *   *   *   *   *   *   *

|------------------------------------|
|------------------------------------|
|------------------------------------|
|--------------------------------10--|
|-----5---6---5-------10-----9-------|
|-0-0---0---0---0-0-0-----0-----0----|
  * *   *   *   * * *     *     *

|----------------------------------|
|----------------------------------|
|----------------------------------|
|---------------10---9---7--9~-----|
|-------5---6----------------------|
|-0-0-0---0---0----0---0-----------|
  * * *   *   *    *   *

Interlude(8x)
|--------------------------------------------------|
|--------------------------------------------------|
|--------------------------------------------------|
|------------------7-6----4-----4---------5--------|
|-6-----6----------5-4-6--2-2-2-2-2-2-3-3-3--5-4---|
|-4-4-4-4-4-4-4-4------4---------------------3-2---|
    * *   * * * *           * *   * * * *

Ending
|---------------|
|---------------|
|---------------|
|-2-------------|
|-0-5-4-2-------|
|---3-2-0-------|



Enjoy.

            
            
Suggest correction
Creating personal tab
Creating personal tab
You can edit any tab online and save it as your Personal.

You can edit, replace or remove any tab part or add personal notes – all changes will be seen only by you.

Personal tabs can be accessed anytime from any device, even offline.
Learn more »
comments
print report bad tab
guest
You may want to rate the tab now too:
select rating
Wanna post a correction for this tab? Suggest correction