Oops, an error
Loading. Please wait.

Voices Of The Dead tab

version 2
version 2

Whole song

Interactive

by Kreator
7,116 views 3 this week
2 commentsread comments
1 2 3 4 5
x 3
add to favorites
×
Save as Personal and add changes to this tab that will be seen only by you. Learn more ›
×
You can save this tab as Personal to edit and correct it or add notes. All changes will be seen only by you. Learn more »
launch autoscroll
font size
0
reset
how to read this tab
guitar tuner
edit
Autoscroll
slow
fast
+/-
esc
set tempo
stop
                               VOICES OF THE DEAD
                             As recorded by Kreator
                       (From the 2005 Album ENEMY OF GOD)


Gtr I (D G C F A D) - 'Rhythm Left'
Gtr II (D G C F A D) - 'Rhythm Right + Lead'
Gtr III (D G C F A D) - 'Clean guitar I'
Gtr IV (D G C F A D) - 'Clean guitar II'

  Q=65
  W          W          W          W
|----------|----------|----------|----------|
|----------|----------|----------|----------|
|----------|----------|----------|----------|
|----------|----------|----------|----------|
|----------|----------|----------|----------|
|----------|----------|----------|----------|


  W          W          W          W
|----------|----------|----------|------|
|----------|----------|----------|------|
|----------|----------|----------|------|
|----------|----------|----------|------|
|----------|----------|----------|------|
|----------|----------|----------|------|


  Gtr III
   S S S S S S S S S S S S S S S S    S S S S S S S S S S S S S S S S
|----------0---------------0-------|----------0---------------0---------|
|------0-----0---0-----0-----0---0-|------0-----0---0-----0-----0---0---|
|----0---0-----0-----0---0-----0---|----0---0-----0-----0---0-----0-----|
|--2---------------2---------------|--2---------------2-----------------|
|----------------------------------|------------------------------------|
|----------------------------------|------------------------------------|
|
| Gtr IV
|  W                                  W
|-^0-------------------------------|-^0---------------------------------|
|-^0-------------------------------|-^0---------------------------------|
|-^0-------------------------------|-^0---------------------------------|
|-^5-------------------------------|-^5---------------------------------|
|-^7-------------------------------|-^7---------------------------------|
|----------------------------------|------------------------------------|


   S S S S S S S S S S S S S S S S    S S S S S S S S S S S S S S S S
|----------0---------------0-------|----------0---------------0---------|
|--------1---1-----------1---1-----|--------3---3-----------3---3-------|
|------0-------0-------0-------0---|------0-------0-------0-------0-----|
|----2-----------2---2-----------2-|----4-----------4---4-----------4---|
|--3---------------3---------------|--5---------------5-----------------|
|----------------------------------|------------------------------------|
|
|  W                                  W
|-^0-------------------------------|-^0---------------------------------|
|-^1-------------------------------|-^3---------------------------------|
|-^0-------------------------------|-^0---------------------------------|
|-^2-------------------------------|-^4---------------------------------|
|-^3-------------------------------|-^5---------------------------------|
|----------------------------------|------------------------------------|


   S S S S S S S S S S S S S S S S    S S S S S S S S S S S S S S S S
|----------0---------------0-------|----------0---------------0---------|
|------0-----0---0-----0-----0---0-|------0-----0---0-----0-----0---0---|
|----0---0-----0-----0---0-----0---|----0---0-----0-----0---0-----0-----|
|--2---------------2---------------|--2---------------2-----------------|
|----------------------------------|------------------------------------|
|----------------------------------|------------------------------------|
|
|  W                                  W
|-^0-------------------------------|-^0---------------------------------|
|-^0-------------------------------|-^0---------------------------------|
|-^0-------------------------------|-^0---------------------------------|
|-^5-------------------------------|-^5---------------------------------|
|-^7-------------------------------|-^7---------------------------------|
|----------------------------------|------------------------------------|


   S S S S S S S S S S S S S S S S    S S S S S S S S S S S S S S S S
|----------0---------------0-------|----------0---------------0---------|
|--------1---1-----------1---1-----|--------3---3-----------3---3-------|
|------0-------0-------0-------0---|------0-------0-------0-------0-----|
|----2-----------2---2-----------2-|----4-----------4---4-----------4---|
|--3---------------3---------------|--5---------------5-----------------|
|----------------------------------|------------------------------------|
|
|  W                                  W
|-^0-------------------------------|-^0---------------------------------|
|-^1-------------------------------|-^3---------------------------------|
|-^0-------------------------------|-^0---------------------------------|
|-^2-------------------------------|-^4---------------------------------|
|-^3-------------------------------|-^5---------------------------------|
|----------------------------------|------------------------------------|


  Q=155
  Gtr I
  E E E Q  E E E    +E    E  E Q  E E E
|-----------------|----------------------|
|-----------------|----------------------|
|-----------------|-------------------7--|
|-----9-7----7-5--|-(5)---4--5-4--4-5----|
|---7------7------|----------------------|
|-0---------------|----------------------|
|
| Gtr II
| W                      +W
|-----------------|----------------------|
|-----------------|----------------------|
|-----------------|----------------------|
|-2---------------|------(2)-------------|
|-2---------------|------(2)-------------|
|-0---------------|------(0)-------------|


  E E E Q  E E E    +E    E  E Q  E S S E
|-----------------|--------------------------|
|-----------------|--------------------------|
|-----------------|--------------------------|
|-----9-7----7-5--|-(5)---4--5-4--5-5-4------|
|---7------7------|---------------------5----|
|-0---------------|--------------------------|
|
| W                      +W
|-----------------|--------------------------|
|-----------------|--------------------------|
|-----------------|--------------------------|
|-2---------------|------(2)-----------------|
|-2---------------|------(2)-----------------|
|-0---------------|------(0)-----------------|


  E E E Q  E E E   +E  E E Q  E E E   E E E Q  E E E   +E  E E Q   E   S S E
|----------------|------------------|----------------|-------------------------|
|----------------|------------------|----------------|-------------------------|
|----------------|----------------7-|--------------5-|-(5)-4---7---5---5-4-----|
|-----9-7----7-5-|-(5)-4-5-4--4-5---|-----9-7--5-7---|-------5-------------5---|
|---7------7-----|------------------|---7------------|-------------------------|
|-0--------------|------------------|-0--------------|-------------------------|
|
| W                +W                 W                +E  E E E E E E E
|----------------|------------------|----------------|-------------------------|
|----------------|------------------|----------------|-------------------------|
|-7--------------|-(7)--------------|-5--------------|-(5)-5-5-5-5-5-5-5-------|
|-7--------------|-(7)--------------|-5--------------|-(5)-5-5-5-5-5-5-5-------|
|-5--------------|-(5)--------------|-3--------------|-(3)-3-3-3-3-3-3-3-------|
|----------------|------------------|----------------|-------------------------|


  E E  E Q  E E E   +E  E E Q  E E E   E E  E Q  E E E   +E  E E Q  E  S S E
|-----------------|------------------|-----------------|---------------------|
|-----------------|------------------|-----------------|---------------------|
|-----------------|----------------7-|-----------------|---------------------|
|------9-7----7-5-|-(5)-4-5-4--4-5---|------9-7----7-5-|-(5)-4-5-4--5--5-4---|
|---7-------7-----|------------------|---7-------7-----|-------------------5-|
|-0---------------|------------------|-0---------------|---------------------|
|
| E E  E Q  E E E   +E  E E Q  E E E   E E  E Q  E E E   +E  E E Q  E  S S E
|-----------------|------------------|-----------------|---------------------|
|-----------------|------------------|-----------------|---------------------|
|-----------------|------------------|-----------------|---------------------|
|-----------------|------------------|-----------------|------------9--9-7-5-|
|---7-10-9--7-9-7-|-(7)-5-7-5--5-5-5-|---7-10-9--7-9-7-|-(7)-5-7-5-----------|
|-0---------------|------------------|-0---------------|---------------------|


  E E  E  Q  E  E E   +E  E E Q  E E E
|-------------------|------------------|
|-------------------|------------------|
|-------------------|----------------7-|
|------9--7-----7-5-|-(5)-4-5-4--4-5---|
|---7--------7------|------------------|
|-0-----------------|------------------|
|
| E E  E  Q  E  E E   +E  E E Q  E E E
|-------------------|------------------|
|-------------------|------------------|
|-------------------|------------7-7-7-|
|-----12-10----10-9-|-(9)-7-9-7--------|
|---7--------7------|------------------|
|-0-----------------|------------------|


  E E E Q  E E E   +E  E E Q  E   S S E
|----------------|------------------------|
|----------------|------------------------|
|--------------5-|-(5)-4---7--5---5-4-----|
|-----9-7--5-7---|-------5------------5---|
|---7------------|------------------------|
|-0--------------|------------------------|
|
| E E E Q  E E E   +E  E E Q  E S S E
|----------------|---------5--------------|
|-------5----5-8-|-(8)-7-8----8-7-5-------|
|-7-5-4----7-----|------------------7-----|
|----------------|------------------------|
|----------------|------------------------|
|----------------|------------------------|


    Gtrs I, II
      PM--|   PM--|         PM------------------|
    E S S E E S S E E E   E S S E S S E S S E S S
||----------------------|-------------------------|
||o---------------------|-------------------------|
||----------------------|-------------------------|
||--4-------5-------4---|-2-----------------------|
||o-4-------5-------4---|-2-----------------------|
||--2-0-0-0-3-0-0-0-2-0-|-0-0-0-0-0-0-0-0-0-0-0-0-|


    PM--|   PM--|   PM
  E S S E E S S E E E   E E E Q  +E  Q
|---------------------|-----------------|
|---------------------|-----------------|
|---------------------|---2-4-5--(5)-4--|
|-4-------5-------4---|-2-2-4-5--(5)-4--|
|-4-------5-------4---|-2-0-2-3--(3)-2--|
|-2-0-0-0-3-0-0-0-2-0-|-0---------------|


    PM--|   PM--|         PM------------------|
  E S S E E S S E E E   E S S E S S E S S E S S
|---------------------|-------------------------|
|---------------------|-------------------------|
|---------------------|-------------------------|
|-4-------5-------4---|-2-----------------------|
|-4-------5-------4---|-2-----------------------|
|-2-0-0-0-3-0-0-0-2-0-|-0-0-0-0-0-0-0-0-0-0-0-0-|


    PM--|   PM--|   PM
  E S S E E S S E E E   E E E Q  +E  Q
|---------------------|-------------------||
|---------------------|------------------o||
|---------------------|---2-4-5--(5)-7----||
|-4-------5-------4---|-2-2-4-5--(5)-7----||
|-4-------5-------4---|-2-0-2-3--(3)-5---o||
|-2-0-0-0-3-0-0-0-2-0-|-0-----------------||


  Gtr I
  E E E E E E E E   E E E E E E E E   E E E E E E E E   E E E  Q    E E E
|-------8-----7---|-------8-----7---|-------8-----7---|-5-----------------|
|-5-8-5---8-5---8-|-5-8-5---8-5---8-|-5-8-5---8-5---8-|---8-7--8----7-5---|
|-----------------|-----------------|-----------------|-----------------7-|
|-----------------|-----------------|-----------------|-------------------|
|-----------------|-----------------|-----------------|-------------------|
|-----------------|-----------------|-----------------|-------------------|
|
| Gtr II
| W                 W                 W                 H     +Q  Q
|-----------------|-----------------|-----------------|-------------------|
|-----------------|-----------------|-----------------|-------------------|
|-----------------|-5---------------|-----------------|-------------------|
|-2---------------|-5---------------|-5---------------|-4-----(4)-5-------|
|-2---------------|-3---------------|-5---------------|-4-----(4)-5-------|
|-0---------------|-----------------|-3---------------|-2-----(2)-3-------|


  E E E E E E E E   E E E E E E E E   E E E E E E E E    E E E Q  E E E
|-------8-----7---|-------8-----7---|-------8-----7---|-10-8-7-8--7-5---|
|-5-8-5---8-5---8-|-5-8-5---8-5---8-|-5-8-5---8-5---8-|---------------8-|
|-----------------|-----------------|-----------------|-----------------|
|-----------------|-----------------|-----------------|-----------------|
|-----------------|-----------------|-----------------|-----------------|
|-----------------|-----------------|-----------------|-----------------|
|
| W                 W                 W                  W
|-----------------|-----------------|-----------------|-----------------|
|-----------------|-----------------|-----------------|-----------------|
|-----------------|-5---------------|-7---------------|-----------------|
|-2---------------|-5---------------|-7---------------|--3--------------|
|-2---------------|-3---------------|-5---------------|--3--------------|
|-0---------------|-----------------|-----------------|--1--------------|


  E E  E Q  E E E   +E  E E Q  E E E   E E  E Q  E E E   +E  E E Q  E S S E
|-----------------|------------------|-----------------|---------------------|
|-----------------|------------------|-----------------|---------------------|
|-----------------|----------------7-|-----------------|---------------------|
|------9-7----7-5-|-(5)-4-5-4--4-5---|------9-7----7-5-|-(5)-4-5-4--5-5-4----|
|---7-------7-----|------------------|---7-------7-----|------------------5--|
|-0---------------|------------------|-0---------------|---------------------|
|
| E E  E Q  E E E   +E  E E Q  E E E   E E  E Q  E E E   +E  E E Q  E S S E
|-----------------|------------------|-----------------|---------------------|
|-----------------|------------------|-----------------|---------------------|
|-----------------|------------------|-----------------|---------------------|
|-----------------|------------------|-----------------|------------9-9-7-5--|
|---7-10-9--7-9-7-|-(7)-5-7-5--5-5-5-|---7-10-9--7-9-7-|-(7)-5-7-5-----------|
|-0---------------|------------------|-0---------------|---------------------|


  E E  E  Q  E  E E   +E  E E Q  E E E   E E E Q  E E E   +E  E E Q  E S S E
|-------------------|------------------|----------------|---------------------|
|-------------------|------------------|----------------|---------------------|
|-------------------|----------------7-|--------------5-|-(5)-4---7--5-5-4----|
|------9--7-----7-5-|-(5)-4-5-4--4-5---|-----9-7--5-7---|-------5----------5--|
|---7--------7------|------------------|---7------------|---------------------|
|-0-----------------|------------------|-0--------------|---------------------|
|
| E E  E  Q  E  E E   +E  E E Q  E E E   E E E Q  E E E   +E  E E Q  E S S E
|-------------------|------------------|----------------|---------5-----------|
|-------------------|------------------|-------5----5-8-|-(8)-7-8----8-7-5----|
|-------------------|------------7-7-7-|-7-5-4----7-----|------------------7--|
|-----12-10----10-9-|-(9)-7-9-7--------|----------------|---------------------|
|---7--------7------|------------------|----------------|---------------------|
|-0-----------------|------------------|----------------|---------------------|


    Gtrs I, II
      PM--|   PM--|         PM------------------|
    E S S E E S S E E E   E S S E S S E S S E S S
||----------------------|-------------------------|
||o---------------------|-------------------------|
||----------------------|-------------------------|
||--4-------5-------4---|-2-----------------------|
||o-4-------5-------4---|-2-----------------------|
||--2-0-0-0-3-0-0-0-2-0-|-0-0-0-0-0-0-0-0-0-0-0-0-|


    PM--|   PM--|   PM
  E S S E E S S E E E   E E E Q  +E  Q
|---------------------|-----------------|
|---------------------|-----------------|
|---------------------|---2-4-5--(5)-4--|
|-4-------5-------4---|-2-2-4-5--(5)-4--|
|-4-------5-------4---|-2-0-2-3--(3)-2--|
|-2-0-0-0-3-0-0-0-2-0-|-0---------------|


    PM--|   PM--|         PM------------------|
  E S S E E S S E E E   E S S E S S E S S E S S
|---------------------|-------------------------|
|---------------------|-------------------------|
|---------------------|-------------------------|
|-4-------5-------4---|-2-----------------------|
|-4-------5-------4---|-2-----------------------|
|-2-0-0-0-3-0-0-0-2-0-|-0-0-0-0-0-0-0-0-0-0-0-0-|


    PM--|   PM--|   PM
  E S S E E S S E E E   E E E Q  +E  Q
|---------------------|-------------------||
|---------------------|------------------o||
|---------------------|---2-4-5--(5)-7----||
|-4-------5-------4---|-2-2-4-5--(5)-7----||
|-4-------5-------4---|-2-0-2-3--(3)-5---o||
|-2-0-0-0-3-0-0-0-2-0-|-0-----------------||


  Gtr I
  E E E E E E E E   E E E E E E E E   E E E E E E E E   E E E Q     E E E
|-------8-----7---|-------8-----7---|-------8-----7---|-5-----------------|
|-5-8-5---8-5---8-|-5-8-5---8-5---8-|-5-8-5---8-5---8-|---8-7-8-----7-5---|
|-----------------|-----------------|-----------------|-----------------7-|
|-----------------|-----------------|-----------------|-------------------|
|-----------------|-----------------|-----------------|-------------------|
|-----------------|-----------------|-----------------|-------------------|
|
| Gtr II
| W                 W                 W                 H       +Q    Q
|-----------------|-----------------|-----------------|-------------------|
|-----------------|-----------------|-----------------|-------------------|
|-----------------|-5---------------|-----------------|-------------------|
|-2---------------|-5---------------|-5---------------|-4-------(4)---5---|
|-2---------------|-3---------------|-5---------------|-4-------(4)---5---|
|-0---------------|-----------------|-3---------------|-2-------(2)---3---|


  E E E E E E E E   E E E E E E E E   E E E E E E E E    E E E Q  E E E
|-------8-----7---|-------8-----7---|-------8-----7---|-10-8-7-8--7-5---|
|-5-8-5---8-5---8-|-5-8-5---8-5---8-|-5-8-5---8-5---8-|---------------8-|
|-----------------|-----------------|-----------------|-----------------|
|-----------------|-----------------|-----------------|-----------------|
|-----------------|-----------------|-----------------|-----------------|
|-----------------|-----------------|-----------------|-----------------|
|
| W                 W                 W                  W
|-----------------|-----------------|-----------------|-----------------|
|-----------------|-----------------|-----------------|-----------------|
|-----------------|-5---------------|-7---------------|-----------------|
|-2---------------|-5---------------|-7---------------|--3--------------|
|-2---------------|-3---------------|-5---------------|--3--------------|
|-0---------------|-----------------|-----------------|--1--------------|


  ~~~~~~~~~~~~~~~~~~~~~~~~~~~~~~~~~~~~~~
  W                                 +H  H
|---------------------------------|------------------------------|
|-5-------------------------------|-(5)--------------------------|
|---------------------------------|------------------------------|
|---------------------------------|------------------------------|
|---------------------------------|------------------------------|
|---------------------------------|------------------------------|
|
|                                                     Gtrs I, II
| S S S S S S S S S S S S S S S S    S  S S S S S S S E E E E
|---------------------------------|------------------------------|
|---------------------------------|------------------------------|
|---------------------------------|------------------------------|
|---------------------------------|-------------------------2----|
|---------------------------------|-------------------2-3-4-0----|
|-1-1-1-1-1-1-1-1-1-1-1-1-1-1-1-1-|--1--1-1-1-1-1-1-1-0-1-2------|


  Gtrs I, II
  S S S S S S S S S S S S S S S S   S S S S S S S S E E E E
|---------------------------------|----------------------------|
|---------------------------------|----------------------------|
|---------------------------------|----------------------------|
|---------------------------------|---------------------3-2----|
|---------------------------------|-----------------2-3-1-0----|
|-1-1-1-1-1-1-1-1-1-1-1-1-1-1-1-1-|-1-1-1-1-1-1-1-1-0-1--------|


  PM|   PM    PM    PM  PM           PM|   PM    PM    PM  PM----------|
  E E E E E E E E   E E E Q  E E E   E E E E E E E E   E E E E E E S S E
|-----------------|----------------|-----------------|--------------------|
|-----------------|----------------|-----------------|--------------------|
|-----------------|--------------3-|-----------------|--------------------|
|-----3---3-2---2-|---1---1----2---|-----3---3-2---2-|---1----------------|
|-----3---3-2---2-|---1---1--1-----|-----3---3-2---2-|---1----------------|
|-0-0---0-----0---|-0---0----------|-0-0---0-----0---|-0---0-0-0-0-0-0-0--|


  PM|   PM    PM    PM  PM           PM|   PM    PM
  E E E E E E E E   E E E Q  E E E   E E E E E E E E   E E E E E E E E
|-----------------|----------------|-----------------|-----------------|
|-----------------|----------------|-----------------|-----------------|
|-----------------|--------------3-|-----------------|-----------------|
|-----3---3-2---2-|---1---1----2---|-----3---3-2---2-|-3-----2-----1---|
|-----3---3-2---2-|---1---1--1-----|-----3---3-2---2-|---3-2---2-1---1-|
|-0-0---0-----0---|-0---0----------|-0-0---0-----0---|-----------------|


  PM|   PM    PM    PM  PM           PM|   PM    PM    PM  PM----------|
  E E E E E E E E   E E E Q  E E E   E E E E E E E E   E E E E E E S S E
|-----------------|----------------|-----------------|--------------------|
|-----------------|----------------|-----------------|--------------------|
|-----------------|--------------3-|-----------------|--------------------|
|-----3---3-2---2-|---1---1----2---|-----3---3-2---2-|---1----------------|
|-----3---3-2---2-|---1---1--1-----|-----3---3-2---2-|---1----------------|
|-0-0---0-----0---|-0---0----------|-0-0---0-----0---|-0---0-0-0-0-0-0-0--|


  Gtr I
  PM|   PM    PM    PM  PM           PM|   PM    PM
  E E E E E E E E   E E E Q  E E E   E E E E E E E E   E E E E E E E E
|-----------------|----------------|-----------------|-----------------|
|-----------------|----------------|-----------------|-----------------|
|-----------------|--------------3-|-----------------|-----------------|
|-----3---3-2---2-|---1---1----2---|-----3---3-2---2-|-3-----2-----1---|
|-----3---3-2---2-|---1---1--1-----|-----3---3-2---2-|---3-2---2-1---1-|
|-0-0---0-----0---|-0---0----------|-0-0---0-----0---|-----------------|
|
| Gtr II
| PM|   PM    PM    PM  PM           PM|   PM    PM
| E E E E E E E E   E E E Q  E E E   E E E E E E E E   E E E E E E E E
|-----------------|----------------|-----------------|-----------------|
|-----------------|----------------|-----------------|-----------------|
|-----------------|--------------3-|-----------------|-5-----4-----3---|
|-----3---3-2---2-|---1---1----2---|-----3---3-2---2-|---5-4---4-3---3-|
|-----3---3-2---2-|---1---1--1-----|-----3---3-2---2-|-----------------|
|-0-0---0-----0---|-0---0----------|-0-0---0-----0---|-----------------|


  E E E E E E E E   E E E E E E E E
|-------8-----7---|-------8-----7---|
|-5-8-5---8-5---8-|-5-8-5---8-5---8-|
|-----------------|-----------------|
|-----------------|-----------------|
|-----------------|-----------------|
|-----------------|-----------------|
|
| W                 W
|-----------------|-----------------|
|-----------------|-----------------|
|-----------------|-4---------------|
|-2---------------|-4---------------|
|-2---------------|-2---------------|
|-0---------------|-----------------|


   E E E E E E E E    E  E E  E  +H
|-10-----8-----7---|-10-12-7-10-(10)b12=====|
|----8-5---8-5---8-|------------------------|
|------------------|------------------------|
|------------------|------------------------|
|------------------|------------------------|
|------------------|------------------------|
|
|  W                  W
|------------------|------------------------|
|------------------|------------------------|
|--3---------------|------------------------|
|--3---------------|--5---------------------|
|--1---------------|--5---------------------|
|------------------|--3---------------------|


                              ~~                    ~
   +E        +E    S  S  S S  Q   S  S  S S   E E E H    E
|-(10)pb12==(10)r---------------------------|--------------|
|-----------------12-11-10-8-10--10-11-10-8-|-----8--------|
|-------------------------------------------|-7s9-9-9------|
|-------------------------------------------|--------------|
|-------------------------------------------|--------------|
|-------------------------------------------|--------------|
|
|   W                                         W
|-------------------------------------------|--------------|
|-------------------------------------------|--------------|
|-------------------------------------------|--------------|
|---4---------------------------------------|-5------------|
|---4---------------------------------------|-5------------|
|---2---------------------------------------|-3------------|


   PM-------------------------------------|                        ~
   S  S S  S  S S  S  S S  S  S S  S  S S S    Q          S  S S S H
|-------------------------------------------|-------------------------------------|
|-11-10-8-11-10-8-11-10-8-11-10-8-11-10-8-8-|-10b11.5r====8-----------------------|
|-------------------------------------------|---------------10-7-9-9--------------|
|-------------------------------------------|-------------------------------------|
|-------------------------------------------|-------------------------------------|
|-------------------------------------------|-------------------------------------|
|
|       PM------|       PM|        PM|                PM----|      PM|   PM|
|  E    S  S  S S  E    S  S  E    S  S E      E      S S S  S E   S S E S S E
|-------------------------------------------|-------------------------------------|
|-------------------------------------------|-------------------------------------|
|---------------------------------------7---|--9-----------------------------7----|
|--2---------------8----------7---------7---|--9---------------8-------7-----7----|
|--2---------------8----------7---------5---|--7---------------8-------7-----5----|
|--0----0--0--0-0--6----0--0--5----0--0-----|---------0-0-0--0-6---0-0-5-0-0------|


  E E E  E E E  E E    E  E  E  E  E  E  E  E
|-------10-----10---|-12-------14-------------|
|-5-8-5----8-5----8-|----12-------12----15-12-|
|-------------------|-------12-------12-------|
|-------------------|-------------------------|
|-------------------|-------------------------|
|-------------------|-------------------------|
|
| W                    W
|-------------------|-------------------------|
|-------------------|-------------------------|
|-------------------|--4----------------------|
|-2-----------------|--4----------------------|
|-2-----------------|--2----------------------|
|-0-----------------|-------------------------|


                                                                             ~~
   S  S  S  S  S  S  S  S  S  S  S  S  S  S  S  S    S  S  S  S  S  S  S  S  H
|-------12-15-19-15-12----------12-15-19-15-12----|-------12-15-19-15-12----12-|
|-12-15----------------12----12----------------12-|-12-15----------------15----|
|-------------------------12----------------------|----------------------------|
|-------------------------------------------------|----------------------------|
|-------------------------------------------------|----------------------------|
|-------------------------------------------------|----------------------------|
|
|  W                                                 W
|-------------------------------------------------|----------------------------|
|-------------------------------------------------|----------------------------|
|--3----------------------------------------------|----------------------------|
|--3----------------------------------------------|--5-------------------------|
|--1----------------------------------------------|--5-------------------------|
|-------------------------------------------------|--3-------------------------|


|----------|----------|-------------------------|--------------------------|
|----------|----------|-------------------------|--------------------------|
|----------|----------|-------------------------|--------------------------|
|----------|----------|-------------------------|--------------------------|
|----------|----------|-------------------------|--------------------------|
|----------|----------|-------------------------|--------------------------|
|
|                         PM----|   PM|   PM|       PM----|   PM|   PM|
| W          W          E S S S S E S S E S S E   E S S S S E S S E S S E
|----------|----------|-------------------------|--------------------------|
|----------|----------|-------------------------|--------------------------|
|----------|----------|-----------------------7-|-9---------------------7--|
|-4--------|-5--------|-2---------8-----7-----7-|-9---------8-----7-----7--|
|-4--------|-5--------|-2---------8-----7-----5-|-7---------8-----7-----5--|
|-2--------|-3--------|-0-0-0-0-0-6-0-0-5-0-0---|---0-0-0-0-6-0-0-5-0-0----|


|-------------------------|-------------------------|
|-------------------------|-------------------------|
|-------------------------|-------------------------|
|-------------------------|-------------------------|
|-------------------------|-------------------------|
|-------------------------|-------------------------|
|
|   PM----|   PM|   PM|       PM----|   PM|   PM|
| E S S S S E S S E S S E   E S S S S E S S E S S E
|-------------------------|-------------------------|
|-------------------------|-------------------------|
|-9---------------------7-|-9---------------------7-|
|-9---------8-----7-----7-|-9---------8-----7-----7-|
|-7---------8-----7-----5-|-7---------8-----7-----5-|
|---0-0-0-0-6-0-0-5-0-0---|---0-0-0-0-6-0-0-5-0-0---|


|-------------------------|----------------------------|
|-------------------------|----------------------------|
|-------------------------|----------------------------|
|-------------------------|----------------------------|
|-------------------------|----------------------------|
|-------------------------|----------------------------|
|
|   PM----|   PM|   PM|       PM----|   PM|   PM|
| E S S S S E S S E S S E   E S S S S E S S E S S E
|-------------------------|----------------------------|
|-------------------------|----------------------------|
|-9---------------------7-|-9---------------------7----|
|-9---------8-----7-----7-|-9---------8-----7-----7----|
|-7---------8-----7-----5-|-7---------8-----7-----5----|
|---0-0-0-0-6-0-0-5-0-0---|---0-0-0-0-6-0-0-5-0-0------|


|-------------------------|---------------------------------|
|-------------------------|---------------------------------|
|-------------------------|---------------------------------|
|-------------------------|---------------------------------|
|-------------------------|---------------------------------|
|-------------------------|---------------------------------|
|
|   PM----|   PM|   PM|
| E S S S S E S S E S S E   S S S S S S S S S S S S S S S S
|-------------------------|---------------------------------|
|-------------------------|---------------------------------|
|-9---------------------7-|---------------------------------|
|-9---------8-----7-----7-|---------------------------------|
|-7---------8-----7-----5-|-----------------3-2-------------|
|---0-0-0-0-6-0-0-5-0-0---|-3-2-0-0-5-3-2-2-----5-3-5-3-2-3-|


  E E E E E E E E   E E E E E E E E   E E E E E E E E   E E E Q     E E E
|-------8-----7---|-------8-----7---|-------8-----7---|-5-----------------|
|-5-8-5---8-5---8-|-5-8-5---8-5---8-|-5-8-5---8-5---8-|---8-7-8-----7-5---|
|-----------------|-----------------|-----------------|-----------------7-|
|-----------------|-----------------|-----------------|-------------------|
|-----------------|-----------------|-----------------|-------------------|
|-----------------|-----------------|-----------------|-------------------|
|
| W                 W                 W                 H       +Q    Q
|-----------------|-----------------|-----------------|-------------------|
|-----------------|-----------------|-----------------|-------------------|
|-----------------|-5---------------|-----------------|-------------------|
|-2---------------|-5---------------|-5---------------|-4-------(4)---5---|
|-2---------------|-3---------------|-5---------------|-4-------(4)---5---|
|-0---------------|-----------------|-3---------------|-2-------(2)---3---|


  E E E E E E E E   E E E E E E E E   E E E E E E E E    E E E Q  E E E
|-------8-----7---|-------8-----7---|-------8-----7---|-10-8-7-8--7-5---|
|-5-8-5---8-5---8-|-5-8-5---8-5---8-|-5-8-5---8-5---8-|---------------8-|
|-----------------|-----------------|-----------------|-----------------|
|-----------------|-----------------|-----------------|-----------------|
|-----------------|-----------------|-----------------|-----------------|
|-----------------|-----------------|-----------------|-----------------|
|
| W                 W                 W                  W
|-----------------|-----------------|-----------------|-----------------|
|-----------------|-----------------|-----------------|-----------------|
|-----------------|-5---------------|-7---------------|-----------------|
|-2---------------|-5---------------|-7---------------|--3--------------|
|-2---------------|-3---------------|-5---------------|--3--------------|
|-0---------------|-----------------|-----------------|--1--------------|


  E E  E Q  E E E   +E  E E Q  E E E   E E  E Q  E E E   +E  E E Q  E S S E
|-----------------|------------------|-----------------|---------------------|
|-----------------|------------------|-----------------|---------------------|
|-----------------|----------------7-|-----------------|---------------------|
|------9-7----7-5-|-(5)-4-5-4--4-5---|------9-7----7-5-|-(5)-4-5-4--5-5-4----|
|---7-------7-----|------------------|---7-------7-----|------------------5--|
|-0---------------|------------------|-0---------------|---------------------|
|
| E E  E Q  E E E   +E  E E Q  E E E   E E  E Q  E E E   +E  E E Q  E S S E
|-----------------|------------------|-----------------|---------------------|
|-----------------|------------------|-----------------|---------------------|
|-----------------|------------------|-----------------|---------------------|
|-----------------|------------------|-----------------|------------9-9-7-5--|
|---7-10-9--7-9-7-|-(7)-5-7-5--5-5-5-|---7-10-9--7-9-7-|-(7)-5-7-5-----------|
|-0---------------|------------------|-0---------------|---------------------|


  E E  E Q  E E E   +E  E E Q  E E E
|-----------------|------------------|
|-----------------|------------------|
|-----------------|----------------7-|
|------9-7----7-5-|-(5)-4-5-4--4-5---|
|---7-------7-----|------------------|
|-0---------------|------------------|
|
| E E  E Q  E E E   +E  E E Q  E E E
|-----------------|------------------|
|-----------------|------------------|
|-----------------|------------------|
|-----------------|------------------|
|---7-10-9--7-9-7-|-(7)-5-7-5--5-5-5-|
|-0---------------|------------------|


  E E  E Q  E Q    S S S S S S S S S S S S S S S S
|----------------|----------------------------------|
|----------------|----------------------------------|
|----------------|----------------------------------|
|------9-7----7--|----------------------------------|
|---7-------7----|-----------------3-2--------------|
|-0--------------|-3-2-0-0-5-3-2-2-----5-3-5-3-2-3--|
|
| E E  E Q  E Q    S S S S S S S S S S S S S S S S
|----------------|----------------------------------|
|----------------|----------------------------------|
|----------------|----------------------------------|
|----------------|----------------------------------|
|---7-10-9--7-9--|-----------------3-2--------------|
|-0--------------|-3-2-0-0-5-3-2-2-----5-3-5-3-2-3--|


  Gtrs I, II
  S S S S S S S S S S S S S S S S   S S S S S S S S S S S S S S S S
|---------------------------------|---------------------------------|
|---------------------------------|---------------------------------|
|---------------------------------|---------------------------------|
|---------------------------------|---------------------------------|
|-----------------3-2-------------|-----------------3-2-------------|
|-3-2-0-0-5-3-2-2-----5-3-5-3-2-3-|-3-2-0-0-5-3-2-2-----5-3-5-3-2-3-|


  S S S S S S S S S S S S S S S S   Q  Q  H
|---------------------------------|------------|
|---------------------------------|------------|
|---------------------------------|-9----------|
|---------------------------------|-9----------|
|-----------------3-2-------------|-7----------|
|-3-2-0-0-5-3-2-2-----5-3-5-3-2-3-|------------|


Duration Legend
---------------
W - whole; H - half; Q - quarter; E - 8th; S - 16th; T - 32nd; X - 64th; a - acciaccatura
+ - note tied to previous; . - note dotted; .. - note double dotted
Uncapitalized letters represent notes that are staccato (1/2 duration)
Irregular groupings are notated above the duration line
Duration letters will always appear directly above the note/fret number it represents the
duration for.  Duration letters with no fret number below them represent rests.  Multi-
bar rests are notated in the form Wxn, where n is the number of bars to rest for.  Low
melody durations appear below the staff

Tablature Legend
----------------
 h   - hammer-on
 p   - pull-off
 b   - bend
 pb  - pre-bend
 r   - bend release (if no number after the r, then release immediately)
 /\  - slide into or out of (from/to "nowhere")
 s   - legato slide
 S   - shift slide
  - natural harmonic
[n]  - artificial harmonic
n(n) - tapped harmonic
 ~   - vibrato
 tr  - trill
 T   - tap
 TP  - trem. picking
 PM  - palm muting
\n/  - tremolo bar dip; n = amount to dip
 \n  - tremolo bar down
 n/  - tremolo bar up
/n\  - tremolo bar inverted dip
 =   - hold bend; also acts as connecting device for hammers/pulls
 <>  - volume swell (louder/softer)
 x   - on rhythm slash represents muted slash
 o   - on rhythm slash represents single note slash

Misc Legend
-----------
 |  - bar
||  - double bar
||o - repeat start
o|| - repeat end
*|  - double bar (ending)
 :  - bar (freetime)
 $  - Segno
 &  - Coda
Tempo markers -  = BPM(8/16=s8/s16), where s8 = swing 8ths, s16 = swing 16ths

            
            
Suggest correction
Creating personal tab
Creating personal tab
You can edit any tab online and save it as your Personal.

You can edit, replace or remove any tab part or add personal notes – all changes will be seen only by you.

Personal tabs can be accessed anytime from any device, even offline.
Learn more »
Give kudos to tab author, rate the tab!
1 2 3 4 5
comments
print report bad tab
2 comments total.
0 reply
mattman2013 30 Jun 26, 2009 01:09 PM

awesome tab and song. thank you for tabbing this.

0 reply
mattman2013 30 Jun 26, 2009 02:27 PM

oh, and wheres the rest of the solo?

guest
You may want to rate the tab now too:
select rating
Wanna post a correction for this tab? Suggest correction