Oops, an error
Loading. Please wait.

Lonely This Christmas chords

1,389 views 45 this week
no commentswrite comment
1 2 3 4 5
1 last vote to show rating
add to favorites
×
Save as Personal and add changes to this tab that will be seen only by you. Learn more ›
×
You can save this tab as Personal to edit and correct it or add notes. All changes will be seen only by you. Learn more »
launch autoscroll
font size
0
reset
transpose
0
reset
display chords
guitar tuner
edit
Autoscroll
slow
fast
+/-
esc
set tempo
stop
Strumming
There is no strumming pattern for this song yet. and get +5 IQ
Song: Lonely this Christmas
Artist: K T Tunstall
Album: Have yourself a very K T Christmas
Tabbed by: DJ
18th Nov 2012

K T Tunstall's cover version of Mud's 1974 Christmas hit

CAPO: 2nd fret (Sounds in key of A)

Chord names and fret positions are relative to the capo:
G   = 320003 or 355433
Em  = 022000
C   = x32010
D   = xx0232
Cm  = x35543

****************************************************************************

[Intro]
     G              Em             C               D
e |--------------|--------------|---------------|--------2-------|
B |--------0-----|--------0-----|--------1------|------3---3-----|
G |------0---0---|------0---0---|------0---0----|----2-------2---|
D |----0-------0-|----2-------2-|----2-------2--|--0-------------|
A |--------------|--------------|--3------------|----------------|
E |--3-----------|--0-----------|---------------|----------------|

     G             Em              C
e |--------------|--------------|---------------|
B |--------0-----|--------0-----|--------1------|
G |------0---0---|------0---0---|------0---0----|
D |----0-------0-|----2-------2-|----2-------2--|
A |--------------|--------------|--3------------|
E |--3-----------|--0-----------|---------------|

     D
e |--------2------|--2-----2------|
B |------3---3----|----3-----3----|
G |----2-------2--|------2-----2--|
D |--0------------|---------------|
A |---------------|---------------|
E |---------------|---------------|


[Verse 1]
 G           Em       C                 D
Try to i - magine a house that's not a home,
G              Em       C              D
   Try to i - magine Christmas all a - lone,
             G                  Em           C                   D
That's were I'll be, since you left me, my tears could melt the snow,
         G           Em             C          D
What can I do with - out you?  Got no place to go!


[Chorus]
           G            Em             C          D
It'll be lonely this Christmas with - out you to hold,
           G            Em         C        D
It'll be lonely this Christmas, lonely and cold,
           G             Em           C          D
It'll be cold, so-----  cold, with - out you to hold,
      G              C
This Christmas!
e |----------------|---------------|
B |----------------|---------------|
G |------0---------|------0--------|
D |----0-----------|----2----------|
A |-----------0-2--|--3-----3-2-0--|
E |--3------3------|---------------|

     G               D
e |---------------|--------2------|--------2-------|
B |--------0------|------3---3----|------3---3-----|
G |------0---0----|----2-------2--|----2--------2--|
D |----0-------0--|--0------------|--0-------------|
A |---------------|---------------|----------------|
E |--3------------|---------------|----------------|


[Verse 2]
 G                 Em        C                  D
Each time I re - member the day you went away,
G               Em       C              D
   I wouldn't listen to what you had to say,
          G             Em               C             D
I just breakdown, as I look around, the only things I see,
       G              Em           C               D
Are emptiness, and loneliness, an unlit Christmas tree!


[Chorus]
           G            Em             C          D
It'll be lonely this Christmas with - out you to hold,
           G            Em         C        D
It'll be lonely this Christmas, lonely and cold,
           G             Em           C          D
It'll be cold, so-----  cold, with - out you to hold,
      G              C
This Christmas!
e |----------------|---------------|
B |----------------|---------------|
G |------0---------|------0--------|
D |----0-----------|----2----------|
A |-----------0-2--|--3-----3-2-0--|
E |--3------3------|---------------|

     G               D
e |---------------|--------2------|--------2-------|
B |--------0------|------3---3----|------3---3-----|
G |------0---0----|----2-------2--|----2--------2--|
D |----0-------0--|--0------------|--0-------------|
A |---------------|---------------|----------------|
E |--3------------|---------------|----------------|


[Verse 3]
G                   Em         C                   D
   Do you remember last year?     you and I were here,
     G                   Em         C                  D
We never thought there'd be an end, I remember looking at you then,
   G                  Em              C                D
Thinking... Christ - mas... was made for you, and for me,
           G                  Em                C              D
'Cause, darling, this is the time of year you really, really need...
             G     Em       C                    D
...You need love--------,      when it means so very,
      G            Em
Very much!
e |---3-----3-----|--0-----0-----|
B |-----0-----0---|----0-----0---|
G |-------0-----0-|------0-----0-|
D |---------------|--------------|
A |---------------|--------------|
E |---------------|--------------|

     C              D
e |--0----0------|--2-----2-----|--2-----------|
B |----1-----1---|----3-----3---|----3---------|
G |------0-----0-|------2-----2-|------2-------|
D |--------------|--------------|--------------|
A |--------------|--------------|--------------|
E |--------------|--------------|--------------|


[Chorus]
           G           Em              C          D
It'll be lonely this Christmas with - out you to hold,
           G           Em          C        D
It'll be lonely this Christmas, lonely and cold,
           G             Em           C          D
It'll be cold, so-----  cold, with - out you to hold,

[Coda]
        G
This Christmas!             C    Cm           G
   e|-------------------|---0-----3------|----3----||
   B|-------------------|---1-----4------|----3----||
   G|--------0----------|---0-----5------|----4----||
   D|------0------------|---2-----5------|----5----||
   A|-------------0--2--|---3-----3------|----5----||
   E|--3--------3-------|----------------|----3----||

            
            
Suggest correction
Creating personal tab
Creating personal tab
You can edit any tab online and save it as your Personal.

You can edit, replace or remove any tab part or add personal notes – all changes will be seen only by you.

Personal tabs can be accessed anytime from any device, even offline.
Learn more »
Give kudos to tab author, rate the tab!
1 2 3 4 5
comments
print report bad tab
guest
You may want to rate the tab now too:
select rating
Wanna post a correction for this tab? Suggest correction