Oops, an error
Loading. Please wait.

Suddenly I See chords

version 4
version 4

Whole song

Interactive

48,285 views 21 this week
7 commentsread comments
1 2 3 4 5
x 9
add to favorites
×
Save as Personal and add changes to this tab that will be seen only by you. Learn more ›
×
You can save this tab as Personal to edit and correct it or add notes. All changes will be seen only by you. Learn more »
launch autoscroll
font size
0
reset
transpose
0
reset
simplify chords
display chords
guitar tuner
backing track
0:00
0:00
edit
Autoscroll
slow
fast
+/-
esc
set tempo
stop
Author
Strumming
There is no strumming pattern for this song yet. and get +5 IQ
[Intro]
Dsus2, Cadd9, Dsus2, Cadd9, Gadd9   (x2)

[Verse]
 Dsus2                   Cadd9
Her face is a map of the world
                Dsus2  Cadd9  Gadd9   
Is a map of the world
       Dsus 2                  Cadd9
You can hear she's a beautiful girl
                  Dsus2  Cadd9 Gadd9
She's a beautiful girl
Gmaj            Amaj            F#min        Bmin
And everything around her is a silver pool of light
Gmaj            Amaj                 F#min      Bmin
The people who surround her feel the benefit of it
             Gmaj
It makes you calm
    Gmin                       Dmaj
She holds you captivated in her palm

[Chorus]
           Bmin  F#maj7
Suddenly I see 
      Gmaj      Dmaj
This is what I wanna be
     Bmin     F#maj7
Suddenly I see 
Gmin            C7             Bmin
Why the hell it means so much to me

[Bridge]
e|-------------------------------------------------------|
B|------3-------3-------3--------------------------------|
G|----2---2---2---2---2---2---2---2----------------------|
D|--0-------3-------0-------3---2------------------------|
A|-------------------------------------------------------|
E|-------------------------------------------------------|

[Chorus]
           Bmin  F#maj7
Suddenly I see 
      Gmaj      Dmaj
This is what I wanna be
     Bmin     F#maj7
Suddenly I see 
Gmin            C7             Bmin
Why the hell it means so much to me

            
            
Suggest correction
Creating personal tab
Creating personal tab
You can edit any tab online and save it as your Personal.

You can edit, replace or remove any tab part or add personal notes – all changes will be seen only by you.

Personal tabs can be accessed anytime from any device, even offline.
Learn more »
comments
print report bad tab
7 comments total. Showing first comments.
0 reply
adamsadler 10 Feb 07, 2010 10:55 AM

This is the version taught by KT herself in the O2 Arena's Gibson Interactive Studio - so pretty accurate!
Includes the 'custom' C7 that she plays in it.

+1 reply
agirlwithguitar 62 Feb 09, 2010 12:50 PM

It's F#mi7 not F#ma7 in the chorus, and no Bm at the end of the chorus - goes straight back into D for the next verse.

+2 reply
agirlwithguitar 62 Feb 09, 2010 01:18 PM

Also I think, in the bridge, the 2's and 3's in the walkdown are on the 5th string, like so:

Bridge

e|-------------------------------------------------------|
B|------3-------3-------3--------------------------------|
G|----2---2---2---2---2---2---2---2----------------------|
D|--0---------------0------------------------------------|
A|-----------3--------------3---2------------------------|
E|-------------------------------------------------------|

guest
You may want to rate the tab now too:
select rating
Wanna post a correction for this tab? Suggest correction