Oops, an error
Loading. Please wait.

Pura Vida tab

by Ktulu
101 views 1 this week
no commentswrite comment
1 2 3 4 5
3 more votes to show rating
add to favorites
×
Save as Personal and add changes to this tab that will be seen only by you. Learn more ›
×
You can save this tab as Personal to edit and correct it or add notes. All changes will be seen only by you. Learn more »
launch autoscroll
font size
0
reset
how to read this tab
guitar tuner
edit
Autoscroll
slow
fast
+/-
esc
set tempo
stop
AFINACION

Afinación en C (C,F,Bb,Eb,G,C): afina todas las cuerdas de
la guitarra cuatro semitonos menos

------------------------------------------------------------
------------------------------------------------------------


INTRO

1)

[Con varios efectos]
--------------------------------
--------------------------------
-----4-----4-4-5--4-4-5--4-4-7--
-----2-----2-2-3--2-2-3--2-2-5--
--------------------------------
--0-----0-----------------------

2)

--------------------------------
--------------------------------
--------------------------------
--------------------------------
-------------------------5---5--
--0-0-0--1-0-1--0-0-0-0--3-0-3--


VERSO

1) (Pasen y vean...)

Tocar lo mismo que en Intro 1

2) (Ven, vamos...)

Tocar lo mismo que en Intro 2


CHORUS (Más libranos...)

-----------------------------------------------------
-----------------------------------------------------
-----------------------------------------------------
----------------4-4-4-4--3-3-3-3---------------------
----------------2-2-2-2--1-1-1-1--5-9----------------
--0-0--0-0-0-0--------------------3-7---0-0--0-0-0-0-

------------------------
------------------------
------------------------
------------------------
-9-9-9-9--8-8-8-8--5-9--
-7-7-7-7--6-6-6-6--3-7--


POST-CHORUS (Ven, vamos, cógelo)

-----------------------------------------------------------
-----------------------------------------------------------
-----------------------------------------------------------
-----------------------------------------------------------
-----------------------------------------------------------
--12--0-0-0--12--0-0-0-0-0--10-10--0--10--10-10-10-10--12--

------------------------------------------------------------
------------------------------------------------------------


PURA VIDA
---------

PASEN Y VEAN TODA MI MIERDA 

ABIERTO EN CANAL 

PODRAS VERTE REFLEJADO Y SIN CODIFICAR 

VEN VAMOS DAME LA MANO ES TU DESTINO 

ENTRANDO A SACO EN EL CAMPO PROHIBIDO 

JUEGO PELIGROSO Y A VECES 

IRRESISTIBLE 

Y AUN ASI... 

MAS LIBRANOS, MAS LIBRANOS DEL BIEN AMEN 

MAS LIBRANOS PURA VIDA, PURA VIDA 

NADA HAY COMO EQUIVOCARSE 

POR ERECCION PERSONAL 

ERROR CONVERTIDO EN DEFORMACION PROFESIONAL 

ANTES PREFIERO UNA MONTAÑA RUSA 

QUE EN UN ENCEFALOGRAMA PLANO VIVIR 

NO ME DES CONSEJOS QUE YA SE 

EQUIVOCARME 

Y AUN ASI. . . 

MAS LIBRANOS, MAS LIBRANOS DEL BIEN AMEN 

MAS LIBRANOS PURA VIDA, PURA VIDA 

VEN VAMOS COGELO 

VEN VAMOS DAMELO 

MAS LIBRANOS, MAS LIBRANOS DEL BIEN AMEN 

MAS LIBRANOS PURA VIDA, PURA VIDA 

UNA VISCERA MARCADA UN MAL SUEÑO 

YO ME PREGUNTO DONDE ME LLEVA ESTO 

CREO QUE TOME YA UNA DECISION 

Y AUN CON MIS DUDAS 

Y AUN ASI. . . 

MAS LIBRANOS, MAS LIBRANOS DEL BIEN AMEN 

MAS LIBRANOS PURA VIDA, PURA VIDA 

DEJANOS CAER EN LA TENTACION 

VEN VAMOS COGELO 

VEN VAMOS DAMELO 

VOLVER

            
            
Suggest correction
Creating personal tab
Creating personal tab
You can edit any tab online and save it as your Personal.

You can edit, replace or remove any tab part or add personal notes – all changes will be seen only by you.

Personal tabs can be accessed anytime from any device, even offline.
Learn more »
Give kudos to tab author, rate the tab!
1 2 3 4 5
comments
print report bad tab
guest
Wanna post a correction for this tab? Suggest correction