Oops, an error
Loading. Please wait.

Disfraz tab

by Kudai
49 views 1 this week
no commentswrite comment
1 2 3 4 5
3 more votes to show rating
add to favorites
×
Save as Personal and add changes to this tab that will be seen only by you. Learn more ›
×
You can save this tab as Personal to edit and correct it or add notes. All changes will be seen only by you. Learn more »
launch autoscroll
font size
0
reset
how to read this tab
guitar tuner
edit
Autoscroll
slow
fast
+/-
esc
set tempo
stop
ESTE ES EL INTRO DE DISFRAZ UNA EXELENTE CANCION
DE KUDAI DEL NUEVO DISCO NADHA..
AHI LES DEJO..

INTRO

E --------------0-------------------|
B -----------0--------0----1--------|
G --------2-------------------------|
D------2-----------2----2-----------|
A --0-------------------------------|
E ----------------------------------|


E --------------0-------------------|
B -----------0--------0----1--------|
G --------2-------------------------|
D------2-----------2----------------|
A --0-------------------------------|
E ----------------------------------|


(LA )
E -----0----------------------------|
B -----1----------------------------|
G -----2----------------------------|
D------2----------------------------|
A -----0----------------------------|
E ----------------------------------|


GUITARRA ELECTRICA.
E ------------------------------------|
B ------------------------------------|
G ----9---10---12-----9/10--9--7--9---|
D ------------------------------------|
A ------------------------------------|
E ------------------------------------|


LAm
Puedo comprender
     DO
Que así vas a esconder
     FA
Es porque no quieres ver
     SOL
Los dedos que apuntan

LAm
Como culpandote
    FA
Por no ser tan normal
    DO
Por llevar ese disfraz
    MI
De lágrimas negras

       FA
Que en solo una mirada
    SOL
Dices que lo sientes
      LAm
Que quieres escapar muy lejos
 FA          MI      MI7
Sin regresar jamá aa aas (RIFT 2)

                 E   |--------------------
                 B   |--12/11--12--10--12-
                 G   |--------------------
                 D   |--------------------
                 A   | -------------------
                 E   | -------------------


LAm                FA
Quiero salir de aquí
Y no mirar hacia atrás
   SOL               MI
Quiero escapar otra vez
Y no volver nunca más
LAm
Si me va atrás sin miedo
        FA
Sin pensar en nadie más
         SOL
Sin esconderme atrás de este disfraz
                MI
Ya no como un castigo mil veces

                 E   |--------------------
                 B   |--12/11--12--10--12-
                 G   |--------------------
                 D   |--------------------
                 A   | -------------------
                 E   | -------------------


Quiero salir de mi
Quiero obligarme a caer
Quiero escapar una vez
Y no volver nunca más

Sin tener que estar como escondido
Yo no sé de que como una culpa
Tocame la piel sin miedo
Quedate hasta que caiga el sol


E --------------0-------------------|
B -----------0--------0----1--------|
G --------2-------------------------|
D------2-----------2----2-----------|
A --0-------------------------------|
E ----------------------------------|

LAm
Dime que pasó
          DO
En que momento me perdi
          FA
Quisiera desaparecer
       MI
Por un instante perderme
   LAm   DO    FA     MI
De mi, aqui, sentir, ohhh

       FA
Que en solo una mirada
    SOL
Dices que lo sientes
      LAm
Que quieres escapar muy lejos
 FA          MI      MI7
Sin regresar jamás

               E   |--------------------
               B   |--12/11--12--10--12-
               G   |--------------------
               D   |--------------------
               A   | -------------------
               E   | -------------------


LAm                FA
Quiero salir de aquí
Y no mirar hacia atrás
   SOL               MI
Quiero escapar otra vez
Y no volver nunca más
LAm
Si me va atrás sin miedo
        FA
Sin pensar en nadie más
         SOL
Sin esconderme atrás de este disfraz
                MI
Ya no como un castigo mil veces

                 E   |--------------------
                 B   |--12/11--12--10--12-
                 G   |--------------------
                 D   |--------------------
                 A   | -------------------
                 E   | -------------------


Quiero salir de mi
Quiero obligarme a caer
Quiero escapar una vez
Y no volver nunca más

Sin tener que estar como escondido
Yo no sé de que como una culpa
Tocame la piel sin miedo
Quedate hasta que caiga el sol

FA
Si me para atrás el miedo
       SOL
Sin pensar en nadie más
                   LAm
Sin esconderme atrás de este disfraz
Como un castigo em mi
FA
Sin tener que estar como escondido
 SOL
Yo no sé de que como una culpa
   LAm
Tocame la piel sin miedo
Queda hasta que caiga el sol

'Sin pensar en nadie más
Sin esconderme atrás de este disfraz
Sin esconderme atrás de este disfraz
Como un castigo em mi

POR SIEMPRE KUDAIIII...¡¡¡¡¡

            
            
Suggest correction
Creating personal tab
Creating personal tab
You can edit any tab online and save it as your Personal.

You can edit, replace or remove any tab part or add personal notes – all changes will be seen only by you.

Personal tabs can be accessed anytime from any device, even offline.
Learn more »
Give kudos to tab author, rate the tab!
1 2 3 4 5
comments
print report bad tab
guest
Wanna post a correction for this tab? Suggest correction