Oops, an error
Loading. Please wait.

Blink-182 Reunion chords

by Kudrow
94 views 3 this week
no commentswrite comment
1 2 3 4 5
3 more votes to show rating
add to favorites
×
Save as Personal and add changes to this tab that will be seen only by you. Learn more ›
×
You can save this tab as Personal to edit and correct it or add notes. All changes will be seen only by you. Learn more »
launch autoscroll
font size
0
reset
transpose
0
reset
simplify chords
display chords
guitar tuner
edit
Autoscroll
slow
fast
+/-
esc
set tempo
stop
About this tab version
Tab for regular guitar, not baritone. Was this info helpful? Yes No
Strumming
There is no strumming pattern for this song yet. and get +5 IQ
Hello, this is the first tab for this song, I believe. Hell, you might not even know who Kudrow is.
But, nonetheless, here you go. The guitar is supposed to be in baritone tuning, but I don't have a
baritone guitar so, oh well.

Drop D Tuning (D, A, D, G, B, e)

[Intro]
E|----------------------8--8------------------------------------------------------------------------|
B|-8--10-10-10-10--8--8-8--8--10-10-10-10-10-10-10-10-10-10-10-10-10-10-10-10-10-10-10-10-10-10-10--|
G|-10-10-10-10-10-10-10-10-10-10-10-10-10-10-10-10-10-10-10-10-10-10-10-10-10-10-10-10-10-10-10-10--|
D|-------------------------------------------------8--8--8--8--8--8--8--8--8--8--8--8--8--8--8--8---|
A|--------------------------------------------------------------------------------------------------|
D|--------------------------------------------------------------------------------------------------|

E|----------------------8--8----------------------------------------------|
B|-8--10-10-10-10--8--8-8--8--10-10-10-10-10-10-10----10~--10~--10~--10~--|
G|-10-10-10-10-10-10-10-10-10-10-10-10-10-10-10-10------------------------|
D|-------------------------------------------------8-8---8----8----8------|
A|------------------------------------------------------------------------|
D|------------------------------------------------------------------------|

[Verse]
F5                        A#5
A party on the corner of Grand St.
F5                            A#5
and Lorimer. Someone get the tab?
F5                A5
    I've got a negative balance
      A#5           F5                                  A#5                   F5
and I must admit, I knew this was the last five bucks I had to spend but I threw them in
the jukebox anyway.

[Intro 2]
E|----------------------8--8------------------------------------------------------------------------|
B|-8--10-10-10-10--8--8-8--8--10-10-10-10-10-10-10-10-10-10-10-10-10-10-10-10-10-10-10-10-10-10-10--|
G|-10-10-10-10-10-10-10-10-10-10-10-10-10-10-10-10-10-10-10-10-10-10-10-10-10-10-10-10-10-10-10-10--|
D|-------------------------------------------------8--8--8--8--8--8--8--8--8--8--8--8--8--8--8--8---|
A|--------------------------------------------------------------------------------------------------|
D|--------------------------------------------------------------------------------------------------|

E|----------------------8--8--------------------10-10-10-8----------------------------------------|
B|-8--10-10-10-10--8--8-8--8--10-10-10-10-10-10------------10-10-10-10-10-10-10-10----------------|
G|-10-10-10-10-10-10-10-10-10-10-10-10-10-10-10---------------------------------------------------|
D|------------------------------------------------------------------------------------------------|
A|------------------------------------------------------------------------------------------------|
D|------------------------------------------------------------------------------------------------|

[Verse 2]
F5                                 A#5
Can't party on the roof with your parents
F5                                   A#5
or talk about your tax return at the prom.
F5          A5
     No one likes to change
      A#5                F5                         A#5                 F5
but I don't believe that formal education gives you sustenance for four months of vacation
        A#5       F5 C5 A#5        A#5                          F5 C5 A#5
so don't wait for me.     This is exactly where nobody wants to be
        A#5       F5 C5 A#5        A#5                          F5 C5 A#5
so don't wait for me.     This is exactly where nobody wants to be
F5                                             D5
  for the last ten years, for the rest of your life
                           C5
(oh, god, i've run out of time.)
                           A#5
(oh, god, i've run out of time.)

[Solo]
(Guitar 1 plays this:)
F5, F5, D5, D5, C5, C5, A#5, A#5

E|----------------------8--10-13-1313131313-----------------------8-10-13-1313131313--------------|
B|-8--10-10-10-10--8--8----------------------8--10-10-10-10--8--8---------------------------------|
G|-10-10-10-10-10-10-10----------------------10-10-10-10-10-10-10---------------------------------|
D|------------------------------------------------------------------------------------------------|
A|------------------------------------------------------------------------------------------------|
D|------------------------------------------------------------------------------------------------|

E|-16-16-16-16-16-16-16-16-13-13-13-13-13-13-13-13--12-12-12-12-12-12--8-8-8-8-8-8-8-8--|
B|--------------------------------------------------------------------------------------|
G|--------------------------------------------------------------------------------------|
D|--------------------------------------------------------------------------------------|
A|--------------------------------------------------------------------------------------|
D|--------------------------------------------------------------------------------------|

E|-18-18-18-18-18-18-18-18-18-18-18-18-18-18-18-18-19~---|
B|-------------------------------------------------------|
G|-------------------------------------------------------|
D|-------------------------------------------------------|
A|-------------------------------------------------------|
D|-------------------------------------------------------|

        A#5       F5 C5 A#5        A#5                          F5 C5 A#5
don't wait for me.     This is exactly where nobody wants to be
        A#5       F5 C5 A#5        A#5                          F5
don't wait for me.     This is exactly where nobody wants to be

[End on]
F5

************************************

| ~  Vibrato

************************************

            
            
Suggest correction
Creating personal tab
Creating personal tab
You can edit any tab online and save it as your Personal.

You can edit, replace or remove any tab part or add personal notes – all changes will be seen only by you.

Personal tabs can be accessed anytime from any device, even offline.
Learn more »
Give kudos to tab author, rate the tab!
1 2 3 4 5
comments
print report bad tab
guest
You may want to rate the tab now too:
select rating
Wanna post a correction for this tab? Suggest correction