Oops, an error
Loading. Please wait.

Taku tab

53 views 1 this week
no commentswrite comment
1 2 3 4 5
3 more votes to show rating
add to favorites
×
Save as Personal and add changes to this tab that will be seen only by you. Learn more ›
×
You can save this tab as Personal to edit and correct it or add notes. All changes will be seen only by you. Learn more »
launch autoscroll
font size
0
reset
how to read this tab
guitar tuner
edit
Autoscroll
slow
fast
+/-
esc
set tempo
stop
TAKU
(Canción del agua)

A)
   SIm
La lluvia derramó su ser,
La cumbre cambió su piel de serpiente,
La poderosa tempestad,
El corazón de la vertiente...
  SOL                                    DO
El agua que fluyó por mí
También se arrojará furiosa...
 SIm    SIm/LA

A)
El pájaro que apareció,
Abrió sus alas, llamas en mis ojos.
La nieve que se derritió
Rompió la geometría de los copos...
El agua que fluyó por mí
También se arrojará furiosa...

B)
       RE
Y el aire invade al humo...
       SIm
Y el humo seguirá
Cubriendo al sol...
    RE
El aire invade al humo...

C)

Riff 1 bajo

A ------2----------------------------| x3     --------------------
D ----------0---4---5---4-2-2--0-----|        -----4-5-4~4-5-4-2--

Riff 1
Se abren las fauces de la cordillera,
El destino de los valles
Se desprende del acantilado,
Los brazos de los ríos
Se encontrarán? en el abismo...

Solo
Guitarra 1
G----------------------------------------------------------------
B-14-----14----14-15-14-12--------14----14----14-15-14-12--------
e-------------------------14-------------------------------------

G------------11/16-----------------------------------------------
B--------------------------14/17----------------------------14---
e----------------------------------------------------------------

Guitarra 2
G----------------------------------------------------------------
B----------------------------------------------------------------
e----------------------------------------------------------------

G------------11/16--14------------------------------------------14-
B-----------------------13-15-17----------------------------14~----
e--------------------------------14-14---14/19~--17--15--14--------

A)
La oscilación enturbió al mar,
Se filtrará la luz entre las sombras
Y el grito del huracán
Perseguirá el naufragio de mi boca...
El agua que fluyó por mí
También se arrojará furiosa...

B)
El aire invade al humo...
Y el humo seguirá cubriendo al sol...
El aire invade al humo...


guitarra con distorcion

E-------------------------------------       --------------------------
A---2---5----9---10---9----7---7---5--       --9---10---9----10---7----
D-------------------------------------  X3   --------------------------
G---4---7----11--12---11---9---9---7--       -11--12---11---12---9-----


SIm-DO-RE-LA


A---2---0---2-------2---0---5-----2---0---2---#--  x2
D---4---2---4-------4---2---7-----4---2---4---#--


A---2---0---2-------2---0---5-----2---0---2----
D---4---2---4-------4---2---7-----4---2---4----

            
            
Suggest correction
Creating personal tab
Creating personal tab
You can edit any tab online and save it as your Personal.

You can edit, replace or remove any tab part or add personal notes – all changes will be seen only by you.

Personal tabs can be accessed anytime from any device, even offline.
Learn more »
Give kudos to tab author, rate the tab!
1 2 3 4 5
comments
print report bad tab
guest
Wanna post a correction for this tab? Suggest correction