Oops, an error
Loading. Please wait.

Que Te Amo tab

41 views 1 this week
no commentswrite comment
1 2 3 4 5
3 more votes to show rating
add to favorites
×
Save as Personal and add changes to this tab that will be seen only by you. Learn more ›
×
You can save this tab as Personal to edit and correct it or add notes. All changes will be seen only by you. Learn more »
launch autoscroll
font size
0
reset
how to read this tab
guitar tuner
edit
Autoscroll
slow
fast
+/-
esc
set tempo
stop
kiubo banda, ls mando sto, esta rola esta chida no s una cumbia
como las otras, aparte q la letra esta chida, es un bolero
combinado con r&b esta muxo muy chida en general
y p0e c la kiero dedicar a

                "LUS SELENE ROBLES JUAREZ"

xq la kiero muxo, me compagino muy chido con eia

"Quiero decirte nena
por medio de esta canciòn
que donde estes yo te amarè
Que te amo
y aunque tan lejos estes, toda la vida esperare
porque contigo debo estar mujer"


el resto lo dice todo, te la dedico completa chaparrita


el coro sube de tono, si no saben q es A# = Bb ok


INTRO:  D  F#m  Bm  Bm7  Em  A
E------------------------------------------------------
A------------------------------------------------------
D-6/7----------------------7---------------------------
G-----7----------------------5-7-----------------------
B-------5-5h7-7---------7---------5h7--5--5-7--7/8-8---
e---------------7---5-7--------------------------------

E-------------------------------
A-------------------------------
D-------------------------7-----
G---------7/8--8------------7---
B--5/7-7----------5-7-5---------
e-------------------------------

 D       F#m    Bm
Quiero decirte nena
   Bm7             Em
por medio de esta canciòn
  A
que donde estes yo te amarè

  D          F#m        Bm
Siempre te llevo en mi corazòn
         Bm7              Em
y en mi mente quiero que sepas mi bien
       A
que no te olvidarè

  Bm      F#m      Bm
Se que llegara el momento
  Bm7        Em              A
en que te vuelva a ver y te dire


coro:

 D     F#m
Que te amo
   Bm                     Bm7
y contigo soy mas cuando estoy a tu lado
 G          D
que te  extraño
   Em               A
y no puedo màs si tu no estas aqui

 D     F#m
Que te amo
         Bm             B7        Em
y aunque tan lejos estes, toda la vida esperare
         A
porque contigo debo estar mujer


puente:  D  F#m  Bm  Bm7  Em  A

E------------------------------------------------------
A------------------------------------------------------
D-6/7----------------------7---------------------------
G-----7----------------------5-7-----------------------
B-------5-5h7-7---------7---------5h7--5--5-7--7/8-8---
e-------------------5-7--------------------------------

E-------------------------------
A-------------------------------
D-------------------------7-----
G---------7/8--8------------7---
B--5/7-7----------5-7-5---------
e-------------------------------


  Bm        F#m        Bm
Y se que llegara el momento
   Bm7       Am        D      G   D
en que te vuelva a ver y te direeeee
               Em                      F#m
que aunque el tiempo nos pase, y el corazòn me reclame
       C                A
nuestro amor somos tu y yo      y solo se

 D     F#m
Que te amo
   Bm                     Bm7
y contigo soy mas cuando estoy a tu lado
 G          D
que te  extraño
   Em               A
y no puedo màs si tu no estas aqui

 D     F#m
Que te amo
         Bm             B7        Em
y aunque tan lejos estes, toda la vida esperare
         A        B
porque contigo  contigo


 E      G#m
Que te amo
    C#m                   C#m7
y contigo soy mas cuando estoy a tu lado
  A        E
que te  extraño
       F#m            B
y no puedo màs si tu no estas aqui

  E    G#m
Que te amo
         C#m           C#7         F#m
y aunque tan lejos estes, toda la vida esperare
          B       C
porque contigo  contigo


 F      Am
Que te amo
    Dm                   Dm7
y contigo soy mas cuando estoy a tu lado
  A#        F
que te  extraño
       Gm            C
y no puedo màs si tu no estas aqui

  F    Am
Que te amo
       Dm               D7         Gm
y aunque tan lejos estes, toda la vida esperare
          C                C#  C  B  A  A#
porque contigo debo estar mujeeeeeeeeeeeeerr

       D
Que te amo

            
            
Suggest correction
Creating personal tab
Creating personal tab
You can edit any tab online and save it as your Personal.

You can edit, replace or remove any tab part or add personal notes – all changes will be seen only by you.

Personal tabs can be accessed anytime from any device, even offline.
Learn more »
Give kudos to tab author, rate the tab!
1 2 3 4 5
comments
print report bad tab
guest
Wanna post a correction for this tab? Suggest correction