Oops, an error
Loading. Please wait.

Pachuco tab

112 views 1 this week
no commentswrite comment
1 2 3 4 5
3 more votes to show rating
add to favorites
×
Save as Personal and add changes to this tab that will be seen only by you. Learn more ›
×
You can save this tab as Personal to edit and correct it or add notes. All changes will be seen only by you. Learn more »
launch autoscroll
font size
0
reset
how to read this tab
guitar tuner
edit
Autoscroll
slow
fast
+/-
esc
set tempo
stop
SALE CARNALES rola dedicada para  mi amiwis

"LUCINA SANCHEZ MARTINEZ"

spero y t guste mil niña t kiero muxo cuidate
se las paso con intro y el solo d la guitarra a ver q les
parece, dudas comentarios ya saben donde

va y dice asi:


G------------------------------------------------------
B-10-12------------13-10--10-12-----------13-10--------
e------12-11--12-11------------12-11-12-11-------------


   X 2 se toca rapido a la velocidad d la trompeta

G---12-12-12-12-12-12-12---12-12-12-12-12-12-12--------
B-10---------------------10----------------------------
e------------------------------------------------------

G---12-12-12-12-12-12-12-------------------------------
B-10---------------------13-10-10-13-10-10-13-10-------
e------------------------------------------------------


 A             D          E7
No se como se atreven a vestirse
        D         A  D  E7  D
de esa forma y salir  asi
A       D      E7           D
en mis tiempos todo era elegante
        A    D      E7  D
sin greñudos y sin rock


 A  G   F#m        G   A    G  F#m     G
Hey pa' fuiste pachuco tambien te regañaban
 A  G   F#m       G    A    G F#m       G
hey pa' bailabas cumbia tienes que recordarlo


primer solo:  x 2


G---12-12-12-12-12-12-12---12-12-12-12-12-12-12--------
B-10---------------------10----------------------------
e------------------------------------------------------

G---12-12-12-12-12-12-12-------------------------------
B-10---------------------13-10-10-13-10-10-13-10-------
e------------------------------------------------------


   A             D          E7
No se como se atreven a vestirse
        D         A  D  E7  D
de esa forma y salir  asi
A       D      E7           D
en mis tiempos todas las mujeres
      A     D         E7  D
eran serias no habia punk


A  G   F#m        G   A    G  F#m     G
Hey pa' fuiste pachuco tambien te regañaban
 A  G   F#m       G    A    G F#m       G
hey pa' bailabas cumbia tienes que recordarl


solo d la guitarra:


D-----------------------------------------------------
G-----------------------------------------------------
B-14/15-15-15/14--12--14/15--15p14-12-----------------
e--------------------------14-------------------------

D-----------------------------------------------------
G-----------------------------------------------------
B-14/15-15-15/14--12--14/15--15p14-12-----------------
e--------------------------14-------------------------


D-14--------14--------14-------14--------14-----------
G---12-14-12--12-14-12--14-12----12-14-12--12-14-12---
B-----------------------------------------------------
e-----------------------------------------------------

D-14---------------------------------------------------
G---14-12----------------------------------------------
B----------14/15-15-15/14-12--14/15--15p14-12----------
e----------------------------------14------------------

D-----------------------------------------------------
G-----------------------------------------------------
B-14/15-15-15/14--12--14/15--15p14-12-----------------
e--------------------------14-------------------------


   A             D          E7
No se como se atreven a vestirse
        D         A  D  E7  D
de esa forma y salir  asi
A     D     E7        D
yo recuerdo mi generacion
      A        D     E7  D
era decente y muy formal

 A  G   F#m        G
Hey pa' fuiste pachuco... ETC.


FINAL:

G---12-12-12-12-12-12-12---12-12-12-12-12-12-12--------
B-10---------------------10----------------------------
e------------------------------------------------------

G---12-12-12-12-12-12-12-------------------------------
B-10---------------------13-10-10-13-10-10-13-10-------
e------------------------------------------------------

G---12-12-12-12-12-12-12---12-12-12-12-12-12-12--------
B-10---------------------10----------------------------
e------------------------------------------------------

G----------------------------
B-13-10-10-13-10-10-13-10----
e----------------------------

            
            
Suggest correction
Creating personal tab
Creating personal tab
You can edit any tab online and save it as your Personal.

You can edit, replace or remove any tab part or add personal notes – all changes will be seen only by you.

Personal tabs can be accessed anytime from any device, even offline.
Learn more »
Give kudos to tab author, rate the tab!
1 2 3 4 5
comments
print report bad tab
guest
Wanna post a correction for this tab? Suggest correction