Oops, an error
Loading. Please wait.

Mndagstrst tab

by Kungers
788 views 1 this week
1 commentread comment
1 2 3 4 5
2 more votes to show rating
add to favorites
×
Save as Personal and add changes to this tab that will be seen only by you. Learn more ›
×
You can save this tab as Personal to edit and correct it or add notes. All changes will be seen only by you. Learn more »
launch autoscroll
font size
0
reset
how to read this tab
guitar tuner
edit
Autoscroll
slow
fast
+/-
esc
set tempo
stop
Author
Artist: Kungers (www.kungers.se)
Titel: Måndagströst
Album: Folkpunk
Tabat av: Ariel
Mail: Dibbefreak@hotmail.com

Observera att denna tab inte är 100% korrekt,
tänker då mest på sologitarren på introt.

För alla ärenden kontakta mig gärna via mail.

Länge leve Kungers!


-----------------


Ackord:

    C#m   B     D#   G#m    E    
e|--4-----7-----6-----4-----7---|
B|--5-----7-----8-----4-----9---|
G|--6-----8-----8-----4-----9---|
D|--6-----9-----8-----6-----9---|
A|--4-----9-----6-----6-----7---|
E|--------7-----------4---------|


Intro
C#m  B  D# G#m
C#m  B  D# D#


Vers/Refräng 1(Den är till dig)
C#m  G#m  D#  G#m


Refräng 2(Vi är här)
E  B  D# G#m

E  B  D# G#m-D#-G#m


-----------------


Uppbyggnad:

Intro

Vers/Refräng 1(Den är till dig)

Refräng 2(Vi är här)

Vers/Refräng 1(Den är till dig)

Solo

Refräng 2(Vi är här)


-----------------


Intro:
                C#m            B                                     
e|7---9----11---12-----14--12--11--------11h12-14-12-11h12p11----11--|
B|9---11---12---14-----16--14--12---12h14---------------------14-----|
G|8---10---11---13-----15--13--11------------------------------------|
D|-------------------------------------------------------------------|
A|-------------------------------------------------------------------|
E|-------------------------------------------------------------------|

  D#                     G#m                                         
e|9-----9--9--9---7--9---11------------------------------------------|
B|11----11-11-11--9--11--12-----------------------9h11-12------------|
G|10----10-10-10--8--10--11---------------10h11h13-------------------|
D|--------------------------------10h11h13---------------------------|
A|----------------------------9h11-----------------------------------|
E|-------------------------------------------------------------------|

  C#m                     B                          D#             D#
e|12----12-12-12--14--12--11----------------------------------------6--|
B|14----14-14-14--16--14--12---------------------4h5-7-5-4h5p4-4----9--|
G|11----11-11-11--15--11--11------------------4h6-------------6--6--9--|
D|---------------------------------------4h6h7----------------------9--|
A|----------------------------------4h6h7---------------------------6--|
E|-----------------------------4h5h7-----------------------------------|



Vers:

C#m      
Små fötter springa vingar

G#m
flyga fenor simma 

           D#                             G#m
alla är på väg till ingenting bara runt i cirklar jaga mynt och sedlar

C#m
  lugna dig hjärtat

G#m               D#              G#m
ingen har sagt att allting slutar nu som värst


C#m
  tappa det inte

G#m
  ta det nu sakta

D#
vatten på din kruka släcker din törst jag sa



Ref. 1:

C#m               G#m
 Den är till dig, den är till dig,

D#                    G#m
den är till dig, den här är till dig, jag sa

C#m               G#m
 den är till dig, den är till dig,

D#                    G#m
den är till dig, den här är till dig, för

Soloslinga:
e|--11p10-11-12-11-10h11------|
B|----------------------------|



Ref. 2:

E         B
 Vi är här

D#                   G#m
 för att lätta ditt tunga hjärta å  

E     B
 Vi är

D#               G#m
  som en lampa i mörka natten å

E         B
 Vi är här

D#                   G#m
 för att lätta ditt tunga hjärta och

E     B   D#   G#m-G-G#m
 vi är ...



Vers:

   C#m
En måndagströst för vanligt folk

 G#m
en liten glimt av sol i storm

D#               G#m
någon som håller om

   C#m
en låt är bäst när något känns
 
 G#m
en tår som torkas av en vän

D#               G#m
någon som håller om


[Ref 1]


Solo:
e|-----------------------------------------------------------------|
B|-5-4-2-5-4-2-5-4--4-2-0-4-2-0-4-2--2-0---2-0--2-0-------2-4-5-4-2|
G|---------------------------------------3----3-----1-3-4----------|
D|-----------------------------------------------------------------|
A|-----------------------------------------------------------------|
E|-----------------------------------------------------------------|

e|-----------------------------------------------------------------|
B|-5-4-2-5-4-2-5-4--4-2-0-4-2-0-4-2--2-0---2-0--2-0----------------|
G|---------------------------------------3----3-----1--0--1--------|
D|-----------------------------------------------------------------|
A|-----------------------------------------------------------------|
E|-----------------------------------------------------------------|

[Ref 2]

            
            
Suggest correction
Creating personal tab
Creating personal tab
You can edit any tab online and save it as your Personal.

You can edit, replace or remove any tab part or add personal notes – all changes will be seen only by you.

Personal tabs can be accessed anytime from any device, even offline.
Learn more »
Give kudos to tab author, rate the tab!
1 2 3 4 5
comments
print report bad tab
1 comment total.
0 reply
stomvall 74 Jun 24, 2010 06:48 AM

Tack! Har letat Kungers och Grega-ackord ett tag!
Har ingen koll på tabben men ackorden sitter grymt :)

guest
You may want to rate the tab now too:
select rating
Wanna post a correction for this tab? Suggest correction