Oops, an error
Loading. Please wait.

Aarnivalkea tab

305 views 3 this week
no commentswrite comment
1 2 3 4 5
3 more votes to show rating
add to favorites
×
Save as Personal and add changes to this tab that will be seen only by you. Learn more ›
×
You can save this tab as Personal to edit and correct it or add notes. All changes will be seen only by you. Learn more »
launch autoscroll
font size
0
reset
how to read this tab
guitar tuner
edit
Autoscroll
slow
fast
+/-
esc
set tempo
stop
-------------------------------------------------------------------------------
                            Aarnivalkea - Kuolemanlaaks
-------------------------------------------------------------------------------
Tabbed by: vampirez-kizz
E-mail: wings.of.glory7@gmail.com

This is my first tab. Any questions, feel free to email me.

You can watch the cover video I made here: http://www.youtube.com/watch?v=JyHSKL2FHLI

Tuning: Drop C

Main riff, repeated through out the song. Listen to the song for timing

D|---------------------------------------------------------------------------|
A|---------------------------------------------------------------------------|
F|---------------------------------------------------------------------------|
C|--0---\8-7------------------0---\8-7---------------------------------------|
G|--0--------5-4--4h5-5\8/1---0--------5-4--4h5-5/1--0-----------------------|
C|--0-------------------------0----------------------------------------------|

Repeat this X2

D|---------------------------------------------------------------------------|
A|---------------------------------------------------------------------------|
F|---------------------------------------------------------------------------|
C|---------------------------------------------------------------------------|
G|---------------------------------------------------------------------------|
C|--5~-6-5-1--4~-5~-4-5-1~-\-------------------------------------------------|

The bends in here are down half-step bends

D|------------------------------------------------------------------------------------|
A|------------------------------------------------------------------------------------|
F|------------------------------------------------------------------------------------|
C|--00PM--8-7--0PM--------00PM--8-7---------00PM--8-7--0PM--------00PM--8-7-12-11-8-7-|
G|--00PM-------0PM-5-7-8--00PM------8b-7b---00PM-------0PM-5-7-8--00PM----------------|
C|--00PM-------0PM--------00PM--------------00PM-------0PM--------00PM----------------|

                                                    this comes in the 4th time
D|---------------------------------------------------------------------------|
A|---------------------------------------------------------------------------|
F|---------------------------------------------------------------------------|
C|--------------------------------------------------0000000000PM-------------|
G|-------------1b-----------------------------------0000000000PM-------------|
C|---0--1-0-1-----3-4-1b-3-4-1b-4-3--4X-------------0000000000PM-------------|

I improvised on the C string for the tremolo part

Repeat first part 3 times then play the second one in the 4th time

D|-------------------------------------------------------------------------------|
A|-------------------------------------------------------------------------------|
F|-------------------------------------------------------------------------------|
C|--------------------------------------------------------1--1PM1PM--1PM1PM--0---|
G|----------1b----------------------------------1-0-------1--1PM1PM--1PM1PM--0---|
C|-0--1-0-1----3-4--1b-3-4--1b-4-3--3X--1--3--4-----4--1--1--1PM1PM--1PM1PM--0---|



Then repeat main riff until the end 

************************************

| /   slide up
| \   slide down
| h   hammer-on
| p   pull-off
| ~   vibrato
| +   harmonic
| x   Mute note
| b   Bend
| pb  Pre-bend
| br  Bend release
| pbr Pre-bend release
| brb Bend release bend

************************************

            
            
Suggest correction
Creating personal tab
Creating personal tab
You can edit any tab online and save it as your Personal.

You can edit, replace or remove any tab part or add personal notes – all changes will be seen only by you.

Personal tabs can be accessed anytime from any device, even offline.
Learn more »
Give kudos to tab author, rate the tab!
1 2 3 4 5
comments
print report bad tab
guest
You may want to rate the tab now too:
select rating
Wanna post a correction for this tab? Suggest correction