Oops, an error
Loading. Please wait.

Hearts Of The Innocent album tab

version 1
version 1

Album

Interactive

by Kutless
2,156 views 1 this week
no commentswrite comment
1 2 3 4 5
3 more votes to show rating
add to favorites
×
Save as Personal and add changes to this tab that will be seen only by you. Learn more ›
×
You can save this tab as Personal to edit and correct it or add notes. All changes will be seen only by you. Learn more »
launch autoscroll
font size
0
reset
how to read this tab
guitar tuner
edit
Autoscroll
slow
fast
+/-
esc
set tempo
stop
Author
Difficulty
1.Hearts of the innocent

Note: use windows WordPad; other word processors will squish it.

Tunning: Drop-Db

Intro:

riff 1
eb|-------------------------------------------|
Bb|-------------------------------------------|
Gb|o------------------------------------------|
Db|o------------------------------------------|
Ab|-------------------------------------------|
Db|--0-2-0-2-0-2-0-2/5-5-0-2-0-2-0-2-0-2/7-7--|


eb|----------------------------------------|
Bb|----------------------------------------|
Gb|---------------------5-5-5-5-----------o|
Db|---------------------5-5-5-5-5-7-5-5-7-o|
Ab|---------------------3-3-3-3-5-7-5-5-7--|
Db|-0-2-0-2-0-2-0-2/5-5---------5-7-5-5-7--|
                                .   . . 

riff 2
eb|-------------------------------------------|
Bb|-------------------------------------------|
Gb|o------------------------------------------|
Db|o-0-2-0-2-0-2-0-2/5-5-0-2-0-2-0-2-0-2/7-7--|
Ab|--0-2-0-2-0-2-0-2/5-5-0-2-0-2-0-2-0-2/7-7--|
Db|--0-2-0-2-0-2-0-2/5-5-0-2-0-2-0-2-0-2/7-7--|

eb|----------------------------------------|
Bb|----------------------------------------|
Gb|---------------------5-5-5-5-----------o|
Db|-0-2-0-2-0-2-0-2/5-5-5-5-5-5-5-7-5-5-7-o|
Ab|-0-2-0-2-0-2-0-2/5-5-3-3-3-3-5-7-5-5-7--|
Db|-0-2-0-2-0-2-0-2/5-5---------5-7-5-5-7--|
                                .   . . 

verse:

riff 3
eb|-0------0---------------|
Bb|---3------3----------0--|
Gb|-----0------2------2----|
Db|---------------3/4------|
Ab|------------------------|
Db|------------------------|

riff 4
eb|------------------------|
Bb|------------------------|
Gb|------------------------|
Db|-7--7-7--7-0--0--0-5-5--|
Ab|-7--7-7--7-0--0--0-5-5--|
Db|-7--7-7--7-0--0--0-5-5--|

pre chorus:

riff 5                                                       \
eb|--------------------------------------------------------| |
Bb|--------------------------------------------------------| |
Gb|-5--5-5--5-5--5-5-5--5--5-5-----------------------------| |
Db|-5--5-5--5-5--5-5-5--5--5-5-7--7-7--7-7--7-7-7--7--7-7--| | 
Ab|-3--3-3--3-3--3-3-3--5--3-3-7--7-7--7-7--7-7-7--7--7-7--| |
Eb|----------------------------7--7-7--7-7--7-7-7--7--7-7--| \
                                                              \two guitars play these riffs
riff 6                                                        /
eb|-----7--------------10------------7---8-7--|              /
Bb|-8--------8----8---------8----8------------|              |
Gb|---9----9---9----9-----9---9----9---9------|              |
Db|-------------------------------------------|              |
Ab|-------------------------------------------|              |
Db|-------------------------------------------|              |
                                                             /
riff 7
eb|--------------|
Bb|--------------|
Gb|--------------|
Db|-2-4-5-7-4-0--|
Ab|-2-4-5-7-4-0--|
Db|-2-4-5-7-4-0--|

chorus:

riff 8                                                           \
eb|------------------------------------------------------------| |
Bb|------------------------------------------------------------| |
Gb|-------------------------------------------5--5--5--5-5--5--| |
Db|-2--2--2--2-2--2--2-2-5--5--5--5-5--5--5-5-5--5--5--5-5--5--| |
Ab|-2--2--2--2-2--2--2-2-5--5--5--5-5--5--5-5-3--3--3--3-3--3--| |
Db|-2--2--2--2-2--2--2-2-5--5--5--5-5--5--5-5------------------| \
                                                                  \two guitars
riff 9                                                            /
eb|------------------------------------------------7---------|   / 
Bb|-------------------------------------------8---------8----|   | 
Gb|-8h9-9-9-99-99--9-9-9-8h9-9-9-99-99--9-9-9----9----9---9--|   | 
Db|----------------------------------------------------------|   |
Ab|----------------------------------------------------------|   |
Db|----------------------------------------------------------|   |
                                                                 /
riff 10
eb|----------------------|
Bb|----------------------|
Gb|----------------------|
Db|-0-2-0-2-0-2-0-2-5-5--|
Ab|-0-2-0-2-0-2-0-2-5-5--|
Db|-0-2-0-2-0-2-0-2-5-5--|

riff 11                                                            \
eb|--------------------------------------------------------------| |
Bb|--------------------------------------------------------------| |
Gb|-------------------------------------------5-5-5-5------------| |
Db|-2--2--2--2-2--2--2-2-5--5--5--5-5--5--5-5-5-5-5-5-5-7-5-5-7--| |
Ab|-2--2--2--2-2--2--2-2-5--5--5--5-5--5--5-5-3-3-3-3-5-7-5-5-7--| |
Db|-2--2--2--2-2--2--2-2-5--5--5--5-5--5--5-5---------5-7-5-5-7--| \
                                                      .   . .       \two guitars
riff 12                                                             /
eb|------------------------------------------------10--------|     /
Bb|-------------------------------------------8---------8----|     |
Gb|-8h9-9-9-99-99--9-9-9-8h9-9-9-99-99--9-9-9----9----9---9--|     |
Db|----------------------------------------------------------|     |
Ab|----------------------------------------------------------|     |
Db|----------------------------------------------------------|     |
                                                                   /

solo:

play riff 1 as an intro for the solo.
then one guitar plays riff 13 while another guitar plays riff 14. 
both riffs are the same length, they just don't look it writen out.

riff 13
eb|-------------------------------------------------------------------------|
Bb|--12------------------------------------12-------------------------------|
Gb|o-14^--14-12~~--12h14p12-----12^-----xx-14^--14-12~~--12h14p12-----------|
Db|o------------------------h14-----14----------------------------14-13/14--|
Ab|-------------------------------------------------------------------------|
Db|-------------------------------------------------------------------------|
                                       
eb|--------------------------------------------------------------------|
Bb|--------------------------------------------------------------------|
Gb|-14-16----14-16-----14-16--17-16-12----14-16----14\9-11-12-14-11-7-o|
Db|-------14--------14-----------------14-------14----x-x--x--x--x--x-o|
Ab|---------------------------------------------------7-9--10-12-9--5--|
Db|--------------------------------------------------------------------|

riff 14
eb|---------------------------------------------------------------|
Bb|---------------------------------------------------------------|
Gb|o--------------------------------------------------------------|
Db|o-0-2-0-2-0-2-0-2/5-5-0-2-0-2-0-2-0-2/7-7-0-2-0-2-0-2-0-2/5-5--|
Ab|--0-2-0-2-0-2-0-2/5-5-0-2-0-2-0-2-0-2/7-7-0-2-0-2-0-2-0-2/5-5--|
Db|--0-2-0-2-0-2-0-2/5-5-0-2-0-2-0-2-0-2/7-7-0-2-0-2-0-2-0-2/5-5--|

eb|--------------------------------------------------------| 
Bb|--------------------------------------------------------| 
Gb|-5--5-5--5-5--5-5-5--5--5-5-----------------------------| 
Db|-5--5-5--5-5--5-5-5--5--5-5-7--7-7--7-7--7-7-7--7--7-7--|  
Ab|-3--3-3--3-3--3-3-3--5--3-3-7--7-7--7-7--7-7-7--7--7-7--| 
Eb|----------------------------7--7-7--7-7--7-7-7--7--7-7--| 

eb|--------------|
Bb|--------------|
Gb|-------------o|
Db|-2-4-5-7-4-0-o|
Ab|-2-4-5-7-4-0--|
Db|-2-4-5-7-4-0--|


All the riffs for the ending of the song are here, so I won't bother 
to type it out.

key:

| o-one riff-o |
| / slide up   |
| \ slide down |
| ^ bend       |
| . palm mute  |
| h hammer on  |
| p pull off   |
| x mute note  |
| ~ vibrato    |

----------------------------------------------------------------------------
----------------------------------------------------------------------------
2.Shut me out

Legend:
h-hammer on         \-slide down                     p-pull off
pm-palm mute        ()-How many times to play        r-return bend

Intro Guitars 1 and 2:
Eb|----------------------------|   |--------------------------------|
Bb|----------------------------|   |--------------------------------|
Gb|------7---------------------|   |--------------------------------|
Db|--0---7---0---5-h7---3------|   |--8--8--8--8---------10\--------|
Ab|--0---5---0---5-h7---3------|   |--8--8--8--8---0-0---10\--------|
Db|--0-------0---5-h7---3------|x3 |--8--8--8--8---0-0---10\--------|
                                                   pmpm

Intro Guitars 1 and 2:
Eb|----------------------------|   |--------------------------------|
Bb|----------------------------|   |--------------------------------|
Gb|------7---------------------|   |--------------------------------|
Db|--0---7---0---5-h7---3------|   |--8--8--8--8---------10\--------|
Ab|--0---5---0---5-h7---3------|   |--8--8--8--8---0-0---10\--------|
Db|--0-------0---5-h7---3------|x3 |--8--8--8--8---0-0---10\--------|
                                                   pmpm
Verse 1 Guitar 1: palm muted
Eb|-----------------------------------------------------------------|
Bb|-----------------------------------------------------------------|
Gb|-----------------------------------------------------------------|
Db|--0(x16)--------10(x16)-------5(x16)--------0(x16)---------------|
Ab|--0-------------10------------5-------------0--------------------|
Db|--0-------------10------------5-------------0--------------------|x2

Verse 1 Guitar 2: (when guitar 1 plays 2nd time)
Eb|-----------------------------------------------------------------|
Bb|--10------------10-----------------------------------------------|
Gb|--------9-h10---------9-h10---9------9-h10--9--------------------|
Db|-----------------------------------------------------------------|
Ab|-----------------------------------------------------------------|
Db|-----------------------------------------------------------------|

Pre-chorus Guitar 1:
Eb|-----------------------------------------------------------------|
Bb|-----------------------------------------------------------------|
Gb|-----------------------------------------------------------------|
Db|--0-0-0--2-2-2--3-3-----5--5--5-----0--0--0-----5--5--5----10----|
Ab|--0-0-0--2-2-2--3-3-----5--5--5-----0--0--0-----5--5--5----10----|
Db|--0-0-0--2-2-2--3-3-----5--5--5-----0--0--0-----5--5--5----10----|
                                                                    |
Pre-Chorus Guitar 2:                                                |
Eb|-----------------------------------------------------------------|
Bb|-----------------------------------------------------------------|
Gb|--7-7-7--9-9-9-1010----------------------------------------------|
Db|--x-x-x--x-x-x--x-x-----5--5--5-----0--0--0-----5--5--5----10----|
Ab|--5-5-5--7-7-7--8-8-----5--5--5-----0--0--0-----5--5--5----10----|
Db|------------------------5--5--5-----0--0--0-----5--5--5----10----|

Chorus Guitars 1 and 2:
Eb|----------------------------|   |--------------------------------|
Bb|----------------------------|   |--------------------------------|
Gb|------7---------------------|   |--------------------------------|
Db|--0---7---0---5-h7---3------|   |--8--8--8--8---------10\--------|
Ab|--0---5---0---5-h7---3------|   |--8--8--8--8---0-0---10\--------|
Db|--0-------0---5-h7---3------|x3 |--8--8--8--8---0-0---10\--------|
                                                   pmpm
Chorus Guitars 1 and 2:
Eb|----------------------------|   |--------------------------------|
Bb|----------------------------|   |--------------------------------|
Gb|------7---------------------|   |--------------------------------|
Db|--0---7---0---5-h7---3------|   |--8--8--8--8---------10\--------|
Ab|--0---5---0---5-h7---3------|   |--8--8--8--8---0-0---10\--------|
Db|--0-------0---5-h7---3------|x3 |--8--8--8--8---0-0---10\--------|
                                                   pmpm

Verse 2 Guitar 1: palm muted
Eb|-----------------------------------------------------------------|
Bb|-----------------------------------------------------------------|
Gb|-----------------------------------------------------------------|
Db|--0(x16)--------10(x16)-------5(x16)--------0(x16)---------------|
Ab|--0-------------10------------5-------------0--------------------|
Db|--0-------------10------------5-------------0--------------------|

Verse 2 Guitar 2: (when guitar 1 plays 2nd time)
Eb|-----------------------------------------------------------------|
Bb|--10------------10-----------------------------------------------|
Gb|--------9-h10---------9-h10---9------9-h10--9--------------------|
Db|-----------------------------------------------------------------|
Ab|-----------------------------------------------------------------|
Db|-----------------------------------------------------------------|

Verse 2 Guitar 1: palm muted
Eb|-----------------------------------------------------------------|
Bb|-----------------------------------------------------------------|
Gb|-----------------------------------------------------------------|
Db|--0(x16)--------10(x16)-------5(x16)--------0(x16)---------------|
Ab|--0-------------10------------5-------------0--------------------|
Db|--0-------------10------------5-------------0--------------------|
                                                                    |
Guitar 2 Continued                                                  |
Eb|-----------------------------------------------------------------|
Bb|--10------------10-----------------------------------------------|
Gb|------7---9-h10-----7---9-h10-9-----9-h10---9---7----------------|
Db|---------------------------------7-------------------------------|
Ab|-----------------------------------------------------------------|
Db|-----------------------------------------------------------------|

Pre-chorus Guitar 1:
Eb|-----------------------------------------------------------------|
Bb|-----------------------------------------------------------------|
Gb|-----------------------------------------------------------------|
Db|--0-0-0--2-2-2--3-3-----5--5--5-----0--0--0-----5--5--5----10----|
Ab|--0-0-0--2-2-2--3-3-----5--5--5-----0--0--0-----5--5--5----10----|
Db|--0-0-0--2-2-2--3-3-----5--5--5-----0--0--0-----5--5--5----10----|
                                                                    |
Pre-Chorus Guitar 2:                                                |
Eb|-----------------------------------------------------------------|
Bb|-----------------------------------------------------------------|
Gb|--7-7-7--9-9-9-1010----------------------------------------------|
Db|--x-x-x--x-x-x--x-x-----5--5--5-----0--0--0-----5--5--5----10----|
Ab|--5-5-5--7-7-7--8-8-----5--5--5-----0--0--0-----5--5--5----10----|
Db|------------------------5--5--5-----0--0--0-----5--5--5----10----|


Chorus 2 Guitars 1 and 2:
Eb|----------------------------|   |--------------------------------|
Bb|----------------------------|   |--------------------------------|
Gb|------7---------------------|   |--------------------------------|
Db|--0---7---0---5-h7---3------|   |--8--8--8--8---------10\--------|
Ab|--0---5---0---5-h7---3------|   |--8--8--8--8---0-0---10\--------|
Db|--0-------0---5-h7---3------|x3 |--8--8--8--8---0-0---10\--------|
                                                   pmpm
Chorus 2 Guitars 1 and 2:
Eb|--------------------|   |----------------------------------------|
Bb|--------------------|   |----------------------------------------|
Gb|-----7--------------|   |----------------------------------------|
Db|--0--7--0--5h7--3---|   |--8--8--8--8------10\------10\------10\-|
Ab|--0--5--0--5h7--3---|   |--8--8--8--8--00--10\--00--10\--00--10\-|
Db|--0-----0--5h7--3---|x3 |--8--8--8--8--00--10\--00--10\--00--10\-|
                                          pm       pm       pm
Bridge Guitar 1
Eb|-----------------------------------------------------------------|
Bb|-----------------------------------------------------------------|
Gb|-----------------------------------------------------------------|
Db|--8(x16)----------------0(x8)--5--7--10--8(x16)------------------|
Ab|--8---------------------0------5--7--10--8-----------------------|
Db|--8---------------------0------5--7--10--8-----------------------|
                                                                    |
Bridge Guitar 2 Solo                                                |
Eb|----------------------------------------17--15----------15--13---|
Bb|---------------------15--------18-17-15--x---x--18--15---x---x---|
Gb|--10--12-14--14-12-14--14---------------14--12---x---x--12--10---|
Db|------------------------------------------------15--12-----------|
Ab|-----------------------------------------------------------------|
Db|-----------------------------------------------------------------|

Bridge Guitar 1 Continued
Eb|-----------------------------------------------------------------|
Bb|-----------------------------------------------------------------|
Gb|-----------------------------------------------------------------|
Db|--0--------------------5----7----10------8--7---3--0-------------|
Ab|--0--------------------5----7----10------8--7---3--0-------------|
Db|--0--------------------5----7----10------8--7---3--0-------------|
                                                                    |
Bridge Guitar 2 Solo Continued                                      |
Eb|-----------------------------------------------------------------|
Bb|-----------------------------------------------------------------|
Gb|--9b(10)r-9b(10)r-9b(10)r-9b(10)r-9----10--9--12--14-------------|
Db|----------------------------------------x--x---x---x-------------|
Ab|----------------------------------------8--7--10--12-------------|
Db|-----------------------------------------------------------------|

Chorus 1 Guitars 1 and 2
Eb|----------------------------|   |--------------------------------|
Bb|----------------------------|   |--------------------------------|
Gb|------7---------------------|   |--------------------------------|
Db|--0---7---0---5-h7---3------|   |--8--8--8--8---------10\--------|
Ab|--0---5---0---5-h7---3------|   |--8--8--8--8---0-0---10\--------|
Db|--0-------0---5-h7---3------|x3 |--8--8--8--8---0-0---10\--------|
                                                   pmpm

Eb|----------------------------|   |--------------------------------|
Bb|----------------------------|   |--------------------------------|
Gb|------7---------------------|   |--------------------------------|
Db|--0---7---0---5-h7---3------|   |--8--8--8--8---------10\--------|
Ab|--0---5---0---5-h7---3------|   |--8--8--8--8---0-0---10\--------|
Db|--0-------0---5-h7---3------|x3 |--8--8--8--8---0-0---10\--------|
                                                   pmpm

Chorus 2 Guitars 1 and 2:
Eb|----------------------------|   |--------------------------------|
Bb|----------------------------|   |--------------------------------|
Gb|------7---------------------|   |--------------------------------|
Db|--0---7---0---5-h7---3------|   |--8--8--8--8---------10\--------|
Ab|--0---5---0---5-h7---3------|   |--8--8--8--8---0-0---10\--------|
Db|--0-------0---5-h7---3------|x3 |--8--8--8--8---0-0---10\--------|
                                                   pmpm
Chorus 2 Guitars 1 and 2:
Eb|--------------------|   |----------------------------------------|
Bb|--------------------|   |----------------------------------------|
Gb|-----7--------------|   |----------------------------------------|
Db|--0--7--0--5h7--3---|   |--8--8--8--8------10\------10\------10\-|
Ab|--0--5--0--5h7--3---|   |--8--8--8--8--00--10\--00--10\--00--10\-|
Db|--0-----0--5h7--3---|x3 |--8--8--8--8--00--10\--00--10\--00--10\-|
                                          pm       pm       pm

End chord (both guitars)
Eb|-----------------------------------------------------------------|
Bb|-----------------------------------------------------------------|
Gb|-----------------------------------------------------------------|
Db|--0--------------------------------------------------------------|
Ab|--0--------------------------------------------------------------|
Db|--0--------------------------------------------------------------|

Finished!

----------------------------------------------------------------------------
----------------------------------------------------------------------------
3.Beyond the surface

Palm Mute = *
Slide = /

Intro(4x)
Eb------------------------|
Bb------------------------|
Gb--555-/-7---------------|
Db--555-/-7---0000000000--|
Ab--333-/-5---0000000000--|
Eb------------0000000000--|
              **********

Eb-----------|
Bb-----------|
Gb-----------|
Db--3/5-5/7--|
Ab-----------|
Eb-----------|

Verse
Eb------------------------------------------------|
Bb------------------------------------------------|
Gb------------------------------------------------|
Db--0000000-3p0-00-5p0-7----0000000-3p0-00-5p0-7--|
Ab--0000000-3p0-00-5p0-7----0000000-3p0-00-5p0-7--|
Eb--0000000-3p0-00-5p0-7----0000000-3p0-00-5p0-7--|
    *******     **          *******     **
Pre Chorus
Eb---------------------------------------------------------------|
Bb---------------------------------------------------------------|
Gb---------------------------------------------------------------|
Db--0-7-0-3-5-0-7-0-5-7-8-8-8-8-8-8-8-8--5-5-5-5-5-5-5--3/5-5/7--|
Ab--0-7-0-3-5-0-7-0-5-7-8-8-8-8-8-8-8-8--5-5-5-5-5-5-5-----------|
Eb--0-7-0-3-5-0-7-0-5-7-8-8-8-8-8-8-8-8--5-5-5-5-5-5-5-----------|

Eb-------------------------------------------|
Bb-------------------------------------------|
Gb-------------------------------------------|
Db--8-8-8-8-8-8-8-8--5-5-5-5-5-5-5--3/5-5/7--|
Ab--8-8-8-8-8-8-8-8--5-5-5-5-5-5-5-----------|
Eb--8-8-8-8-8-8-8-8--5-5-5-5-5-5-5-----------|

Eb-------------------------------------------------------------|
Bb-------------------------------------------------------------|
Gb-------------------------------------------------------------|
Db--8-8-8-8-8-8-8-8-8-8-8-8-8-8-/-5-5-5-5-5-5-5-5-5-5-5-5-5-5--|
Ab--8-8-8-8-8-8-8-8-8-8-8-8-8-8-/-5-5-5-5-5-5-5-5-5-5-5-5-5-5--|
Eb--8-8-8-8-8-8-8-8-8-8-8-8-8-8-/-5-5-5-5-5-5-5-5-5-5-5-5-5-5--|

Chorus
Eb---------------------------------------------------------------------|
Bb---------------------------------------------------------------------|
Gb---------------------------------------------------------------------|
Db--0-0-0-0-0-0-0--3-3-3-3-3-3-3-3--8-8-8-8-8-8--10-10-10-10-10-10-10--|
Ab--0-0-0-0-0-0-0--3-3-3-3-3-3-3-3--8-8-8-8-8-8--10-10-10-10-10-10-10--|
Eb--0-0-0-0-0-0-0--3-3-3-3-3-3-3-3--8-8-8-8-8-8--10-10-10-10-10-10-10--|

Eb---------------------------------------------------------------------|
Bb---------------------------------------------------------------------|
Gb---------------------------------------------------------------------|
Db--0-0-0-0-0-0-0--3-3-3-3-3-3-3-3--8-8-8-8-8-8--10-10-10-10-10-10-10--|
Ab--0-0-0-0-0-0-0--3-3-3-3-3-3-3-3--8-8-8-8-8-8--10-10-10-10-10-10-10--|
Eb--0-0-0-0-0-0-0--3-3-3-3-3-3-3-3--8-8-8-8-8-8--10-10-10-10-10-10-10--|

Eb---------------------------------------------------------------------|
Bb---------------------------------------------------------------------|
Gb---------------------------------------------------------------------|
Db--0-0-0-0-0-0-0--3-3-3-3-3-3-3-3--8-8-8-8-8-8--10-10-10-10-10-10-10--|
Ab--0-0-0-0-0-0-0--3-3-3-3-3-3-3-3--8-8-8-8-8-8--10-10-10-10-10-10-10--|
Eb--0-0-0-0-0-0-0--3-3-3-3-3-3-3-3--8-8-8-8-8-8--10-10-10-10-10-10-10--|

Eb------------------------------------------------------|
Bb------------------------------------------------------|
Gb------------------------------------------------------|
Db--5-5-5-5-5-5-5-5--8-8-8-8-8-8--10-10-10-10-10-10-10--|
Ab--5-5-5-5-5-5-5-5--8-8-8-8-8-8--10-10-10-10-10-10-10--|
Eb--5-5-5-5-5-5-5-5--8-8-8-8-8-8--10-10-10-10-10-10-10--|

Solo Gtr 1
Eb----------------------------------------------------------------------|
Bb----------------------------------------------------------------------|
Gb----------------------------------------------------------------------|
Db--0-7-0-3-5-0-7-0-5-7-8-8-8-8-8-8-8-8-8-8-8-8-8-8-8-8--5-5-5-5-5-5-5--|
Ab--0-7-0-3-5-0-7-0-5-7-8-8-8-8-8-8-8-8-8-8-8-8-8-8-8-8--5-5-5-5-5-5-5--|
Eb--0-7-0-3-5-0-7-0-5-7-8-8-8-8-8-8-8-8-8-8-8-8-8-8-8-8--5-5-5-5-5-5-5--|

Eb-----------------------------------------------------------------|
Bb-----------------------------------------------------------------|
Gb-----------------------------------------------------------------|
Db--5-5-5-5-5-5-5-5-5-5-5-5-5-5--3-3-3-3-3-3-3-3-3-3-3-3--3/5-5/7--|
Ab--5-5-5-5-5-5-5-5-5-5-5-5-5-5--3-3-3-3-3-3-3-3-3-3-3-3-----------|
Eb--5-5-5-5-5-5-5-5-5-5-5-5-5-5--3-3-3-3-3-3-3-3-3-3-3-3-----------|

Solo Gtr 2
Eb---------------------------10-10-12-13-12-10--10p8-8h10-10p8-8h10-10p8--|
Bb-------10-8-10-8-10-8-10-8----------------------------------------------|
Gb--10-9------------------------------------------------------------------|
Db------------------------------------------------------------------------|
Ab------------------------------------------------------------------------|
Eb------------------------------------------------------------------------|

Eb--8h10p8h10------------|
Bb-----------------------|
Gb-----------------------|
Db--------------3/5-5/7--|
Ab-----------------------|
Eb-----------------------|

----------------------------------------------------------------------------
----------------------------------------------------------------------------
4.Smile

Intro:

e|--4---------------------------------4---------------------------------|
b|--4---------------------------------4---------------------------------|
G|--4---------------------------------4------------------8--------------|
D|--6------6/8---9----8---6-----------6------6/8---9-(8)-----8--------6-|
A|---------------------------------------------------------------9------|
E|----------------------------------------------------------------------|
One guitar plays this through the verses, but not the chorus


Verse:
G#m    F#              E
On a plane somewhere again
G#m         F#         E                       G#m
I take my place in line just like every other time
           F#           E
I slide into my window seat
G#m      F#            E
She was sitting there
                    G#m        F#              E
One seat over so I said "Hello, how are you today?"
          F#           E       B                F#
With my smile I could see the hope within her eyes
       G#m                   E           F#
And I knew that something’s different today

Chorus
E      B                 F#     G#m
Though everything’s the same inside
                   E
There’s something real
               B             F#
A faith which causes me to change

(But what’s different now)
E            B                F#
A spark is gleaming in my eye
               G#m                E
Like diamond stars that fill the sky
            B           F#
I think a smile says it all
                   G#m
A smile says it all

Interlude

Verse2:

The conversation presses on
As miles pass below, she said I have to let you know
You seem so different to me
There is a joy inside
The love of God is all I know
From which this could originate
With one smile I could see
The faith we share inside
And I know that something’s different today


D#m       B           F#         C#(m)
       I see what a smile can say about me
D#m        B          F#          C#(m)
       I know that words are not always what speak
D#m             B     F#
       Sometimes it’s not what I say
C#(m)            G#m             E              G#m
       That the world around me seems to understand

----------------------------------------------------------------------------
----------------------------------------------------------------------------
5.Promise of a lifetime

 Play (Cadd9)  E[---|---|-O-|---|
 like thiss    B[---|---|-O-|---|
               G[---|---|---|---|
               D[---|---|---|---|
               A[---|-O-|---|---|
               E[---|---|-O-|---|

 Play (Em7)    E[---|---|-O-|---|
 like thiss    B[---|---|-O-|---|
               G[---|---|---|---|
               D[---|-O-|---|---|
               A[---|-O-|---|---|
               E[---|---|---|---|

Kutless rocks!!

Capo on 2nd fret

Verse 1
G             D/F#           Cadd9
     I have fallen to my knees
      Em7        D      Em7
As I sing a lullaby of pain
            D/F#           Cadd9
Im feeling broken in my melody
       G               D/F#     Cadd9
As I sing to help the tears go away
          D                             G
Then I remember the pledge you made to me


Chorus
G                      D
I know you’re always there
                  Cadd9
To hear my every prayer inside I’m clinging to
      Em7         D/F#
The promise of a lifetime
G                    D/F#
I hear the words you say
              Cadd9          G
To never walk away from me and leave behind
     Em7           D/F#
The promise of a life time


Verse 2
G            D/F#          Cadd9
   Will you help me fall apart?
        Em7         D         Em7
Pick me up take me in your arms
           D/F#                Cadd9
I find my way back from this storm
         G               D                Cadd9
And you show me how to grow through the change
           D                             G
I still remember the pledge you made to me


Chorus
G                      D
to know you’re always there
                  Cadd9
To hear my every prayer inside I’m clinging to
      Em7         D/F#
The promise of a lifetime
G                    D/F#
I hear the words you say
                Cadd9          G
To never walk away from me and leave behind
     Em7           D/F#
The promise of a life time

Verse 3

Em7   Cadd9            G             D
I am holding onto the hope I have inside
                Cadd9              G
With you I will stay through everyday
            Em7           D/F#
Putting my understanding aside

I am confident


Chorus

G                      D
to know you’re always there
                  Cadd9
To hear my every prayer inside I’m clinging to
      Em7         D/F#
The promise of a lifetime
G                    D/F#
I hear the words you say
                Cadd9          G
To never walk away from me and leave behind
     Em7           D/F#
The promise of a life time


Ending Chorus

G                      D
I know you’re always there
                  Cadd9
To hear my every prayer inside I’m clinging to
      Em7         D/F#
The promise of a lifetime
G                    D/F#
I hear the words you say
              Cadd9          G
To never walk away from me and leave behind
     Em7           D/F#
The promise of a life time

----------------------------------------------------------------------------
----------------------------------------------------------------------------
6.Winds of change

Legend
x#-how many times to play bar
x-Scratch
(x#)-how many times to play chord

Intro/verse Guitar 1 clean
Eb|--------------------------------------------------------------------|
Bb|--------------------------------------------------------------------|
Gb|-------------------------------------------------------------2-0----|
Db|------3-----3---3-----3-----3---3------5-----5---5-----5---------3--|
Ab|--1-1---1-1---1--------------------3-3---3-3---3---3-3---3-3--------|
Db|------------------3-3---3-3---3-------------------------------------|x4

Guitar 2 echos when Guitar one plays on 4th time
Eb|--------------------------------------------------------------------|
Bb|--------------------------------------------------------------------|
Gb|--------------------------------------------------------------------|
Db|--3---------------3----------------5--------------------------------|
Ab|--1---------------x----------------3--------------------------------|
Db|------------------3-------------------------------------------------|

Guitar 1 clean
Eb|--------------------------------------------------------------------|
Bb|--------------------------------------------------------------------|
Gb|--------------------------------------------------------------------|
Db|------3-----3---3-----3-----3---3------5-----5---5-----5-----5---5--|
Ab|--1-1---1-1---1--------------------6-6---6-6---6---6-6---6-6---6----|
Db|------------------3-3---3-3---3-------------------------------------|

Guitar 2 echo
Eb|--------------------------------------------------------------------|
Bb|--------------------------------------------------------------------|
Gb|--------------------------------------------------------------------|
Db|--3---------------3----------------5--------------------------------|
Ab|--1---------------x----------------6--------------------------------|
Db|------------------3-------------------------------------------------|

Chorus Guitars 1 and 2 Distorted
Eb|---------------------------------------------------|
Bb|---------------------------------------------------|
Gb|-----------------------------------------55555555--|
Db|--555-7777-55-77-888-7777-88-77-33333333-55555555--|
Ab|--555------55----888------88----33333333-33333333--|
Db|--555------55----888------88----33333333-----------|x2

verse 2 Guitar 1 clean
Eb|--------------------------------------------------------------------|
Bb|--------------------------------------------------------------------|
Gb|-------------------------------------------------------------2-0----|
Db|------3-----3---3-----3-----3---3------5-----5---5-----5---------3--|
Ab|--1-1---1-1---1--------------------3-3---3-3---3---3-3---3-3--------|
Db|------------------3-3---3-3---3-------------------------------------|x4
                                      ^- Guitar 2 echo 

Guitar 2 echo *play once*
Eb|--------------------------------------------------------------------|
Bb|--------------------------------------------------------------------|
Gb|--------------------------------------------------------------------|
Db|-----------------------------------5--------------------------------|
Ab|-----------------------------------3--------------------------------|
Db|--------------------------------------------------------------------|

Guitar 2 echo
Eb|--------------------------------------------------------------------|
Bb|--------------------------------------------------------------------|
Gb|--------------------------------------------------------------------|
Db|--3---------------3----------------5--------------------------------|
Ab|--1---------------x----------------3--------------------------------|
Db|------------------3-------------------------------------------------|x3

Guitar 1 clean
Eb|--------------------------------------------------------------------|
Bb|--------------------------------------------------------------------|
Gb|--------------------------------------------------------------------|
Db|------3-----3---3-----3-----3---3------5-----5---5-----5-----5---5--|
Ab|--1-1---1-1---1--------------------6-6---6-6---6---6-6---6-6---6----|
Db|------------------3-3---3-3---3-------------------------------------|

Guitar 2 echo
Eb|--------------------------------------------------------------------|
Bb|--------------------------------------------------------------------|
Gb|--------------------------------------------------------------------|
Db|--3---------------3----------------5--------------------------------|
Ab|--1---------------x----------------6--------------------------------|
Db|------------------3-------------------------------------------------|

Chorus Guitar 1 and 2 Distorted
Eb|---------------------------------------------------|
Bb|---------------------------------------------------|
Gb|-----------------------------------------55555555--|
Db|--555-7777-55-77-888-7777-88-77-33333333-55555555--|
Ab|--555------55----888------88----33333333-33333333--|
Db|--555------55----888------88----33333333-----------|x4

Bridge Guitars 1 and 2 Distorted
Eb|--------------------------------------------------|
Bb|--------------------------------------------------|
Gb|--------------------------------------------------|
Db|--0(x8)--3(x8)--5-5-5xx5-5-5xxxx5-5-5xx5-5-5xxxx--|
Ab|--0------3------3-3-3xx3-3-3xxxx3-3-3xx3-3-3xxxx--|
Db|--0------3----------------------------------------|x3

Chorus Guitars 1 and 2 Distorted
Eb|---------------------------------------------------|
Bb|---------------------------------------------------|
Gb|-----------------------------------------55555555--|
Db|--555-7777-55-77-888-7777-88-77-33333333-55555555--|
Ab|--555------55----888------88----33333333-33333333--|
Db|--555------55----888------88----33333333-----------|x5

Chorus Continued Guitars 1 and 2 Distorted
Eb|---------------------------------------------------------|
Bb|---------------------------------------------------------|
Gb|-----------------------------------------555xx555xx5555--|
Db|--555-7777-55-77-888-7777-88-77-33333333-555xx555xx5555--|
Ab|--555------55----888------88----33333333-333xx333xx3333--|
Db|--555------55----888------88----33333333-----------------|

Finished

----------------------------------------------------------------------------
----------------------------------------------------------------------------
7.Somewhere in the sky

This tab is 100% correct!


Intro

|---------------------------------------------------------|
|---------------------------------------------------------|
|--9-9-9-9/12-12-12-12-12-12------------------------------|
|--7-7-7-7/10-10-10-10-10-10--0-0--0-0--0--0--0--0-0-0-0--| 2x
|--7-7-7-7/10-10-10-10-10-10--0-0--0-0--0--0--0--0-0-0-0--|
|--7-7-7-7/10-10-10-10-10-10--0-0--0-0--0--0--0--0-0-0-0--|


Verse 1 

Guitar 1    (You slide from each note to the next)
|------------------------------------------------|
|--13--15--10--10--13--15--10--6—-13--15--10--8--|
|------------------------------------------------|
|------------------------------------------------|
|------------------------------------------------|
|------------------------------------------------|

Guitar 2
|---------------------------------------------------------------|
|---------------------------------------------------------------|
|----------5--------------5-------------5------------5/7-5-7/5--|
|----3------3-------3------3------0------0------0---------------|
|------------3--------------3-------------0---------------------|
|--3---3----------3---3---------0---0---------0---0-------------|

|---------------------------------------|
|---------------------------------------|
|----------5----5------------5---—5-----|
|----5----------5--5-----5--------5—-5--|
|--3---3---------------3---3------------|
|---------------------------------------|


Pre-Chorus 1

Guitar 1
|-------------------|
|-------------------|
|--7-7-7-7-7-7-7-7--|
|--5-5-5-5-5-5-5-5--| 2x
|--5-5-5-5-5-5-5-5--|
|--5-5-5-5-5-5-5-5--|


Guitar 2
|-------------------|
|-------------------|
|-------------------|
|--5-5-5-5-5-5-5-5--| 2x
|--5-5-5-5-5-5-5-5--|
|--5-5-5-5-5-5-5-5--|


Chorus 1

Guitars 1&2
|---------------------------------------------------------|
|---------------------------------------------------------|
|--9-9-9-9/12-12-12-12-12-12------------------------------|
|--7-7-7-7/10-10-10-10-10-10--0-0--0-0--0--0--0--0-0-0-0--| 2x
|--7-7-7-7/10-10-10-10-10-10--0-0--0-0--0--0--0--0-0-0-0--|
|--7-7-7-7/10-10-10-10-10-10--0-0--0-0--0--0--0--0-0-0-0--|

|-------------------------------------------------------|
|-------------------------------------------------------|
|--9-9-9-9-9-9-9-9-9-9-9/5-5-5-5-5-5-5/7-7-7-7-7-7-7-7--|
|--7-7-7-7-7-7-7-7-7-7-7/3-3-3-3-3-3-3/5-5-5-5-5-5-5-5--|
|--7-7-7-7-7-7-7-7-7-7-7/3-3-3-3-3-3-3/5-5-5-5-5-5-5-5--|
|--7-7-7-7-7-7-7-7-7-7-7/3-3-3-3-3-3-3/5-5-5-5-5-5-5-5--|

|---------------------------------------------------------|
|---------------------------------------------------------|
|--9-9-9-9/12-12-12-12-12-12------------------------------|
|--7-7-7-7/10-10-10-10-10-10--0-0--0-0--0--0--0--0-0-0-0--|
|--7-7-7-7/10-10-10-10-10-10--0-0--0-0--0--0--0--0-0-0-0--|
|--7-7-7-7/10-10-10-10-10-10--0-0--0-0--0--0--0--0-0-0-0--|

Verse 2

Guitar 1    (You slide from each note to the next)
|------------------------------------------------|
|--13--15--10--10--13--15--10--6—-13--15--10--8--|
|------------------------------------------------|
|------------------------------------------------|
|------------------------------------------------|
|------------------------------------------------|


Guitar 2
|---------------------------------------------------------------|
|---------------------------------------------------------------|
|----------5--------------5-------------5------------5/7-5-7/5--|
|----3------3-------3------3------0------0------0---------------|
|------------3--------------3-------------0---------------------|
|--3---3----------3---3---------0---0---------0---0-------------|

|---------------------------------------|
|---------------------------------------|
|----------5----5------------5---—5-----|
|----5----------5--5-----5--------5—-5--|
|--3---3---------------3---3------------|
|---------------------------------------|


Pre-Chorus 2

Guitar 1
|-------------------|
|-------------------|
|--7-7-7-7-7-7-7-7--|
|--5-5-5-5-5-5-5-5--| 2x
|--5-5-5-5-5-5-5-5--|
|--5-5-5-5-5-5-5-5--|


Guitar 2
|-------------------|
|-------------------|
|-------------------|
|--5-5-5-5-5-5-5-5--| 2x
|--5-5-5-5-5-5-5-5--|
|--5-5-5-5-5-5-5-5--|


Chorus 2

Guitars 1&2
|---------------------------------------------------------|
|---------------------------------------------------------|
|--9-9-9-9/12-12-12-12-12-12------------------------------|
|--7-7-7-7/10-10-10-10-10-10--0-0--0-0--0--0--0--0-0-0-0--| 2x
|--7-7-7-7/10-10-10-10-10-10--0-0--0-0--0--0--0--0-0-0-0--|
|--7-7-7-7/10-10-10-10-10-10--0-0--0-0--0--0--0--0-0-0-0--|

|-------------------------------------------------------|
|-------------------------------------------------------|
|--9-9-9-9-9-9-9-9-9-9-9/5-5-5-5-5-5-5/7-7-7-7-7-7-7-7--|
|--7-7-7-7-7-7-7-7-7-7-7/3-3-3-3-3-3-3/5-5-5-5-5-5-5-5--|
|--7-7-7-7-7-7-7-7-7-7-7/3-3-3-3-3-3-3/5-5-5-5-5-5-5-5--|
|--7-7-7-7-7-7-7-7-7-7-7/3-3-3-3-3-3-3/5-5-5-5-5-5-5-5--|

|---------------------------------------------------------|
|---------------------------------------------------------|
|--9-9-9-9/12-12-12-12-12-12------------------------------|
|--7-7-7-7/10-10-10-10-10-10--0-0--0-0--0--0--0--0-0-0-0--|
|--7-7-7-7/10-10-10-10-10-10--0-0--0-0--0--0--0--0-0-0-0--|
|--7-7-7-7/10-10-10-10-10-10--0-0--0-0--0--0--0--0-0-0-0--|


Bridge

Guitars 1&2
|----------------------------------------------------------------|
|----------------------------------------------------------------|
|----------------------------------------------------------------|
|------2-2/3------2-2/3-------5-0-8-7-0-5-0-5-7-0-8-7-0-5-0-5-7--| 3x
|--0-0-2-2/3--0-0-2-2/3--0-0--5-0-8-7-0-5-0-5-7-0-8-7-0-5-0-5-7--|
|--0-0-2-2/3--0-0-2-2/3--0-0--5-0-8-7-0-5-0-5-7-0-8-7-0-5-0-5-7--|
   . .        . .        . .
|-----------------------------|
|-----------------------------|
|-----------------------------|
|------2-2/3------2-2/3-------| 1x
|--0-0-2-2/3--0-0-2-2/3--0-0--|
|--0-0-2-2/3--0-0-2-2/3--0-0—-|
   . .        . .        . .

|-------------------|
|-------------------|
|-------------------|
|--0-8-7-0-5-0-5-7--| 3x
|--0-8-7-0-5-0-5-7--|
|--0-8-7-0-5-0-5-7--|


Outro-Chorus

Guitar 1&2
|---------------|
|---------------|
|----5/7--------|
|--7/3/5---0-0--|
|--7/3/5---0-0--|
|--7/3/5---0-0--|
           . .

|---------------------------------------------------------|
|---------------------------------------------------------|
|--9-9-9-9/12-12-12-12-12-12------------------------------|
|--7-7-7-7/10-10-10-10-10-10--0-0--0-0--0--0--0--0-0-0-0--|
|--7-7-7-7/10-10-10-10-10-10--0-0--0-0--0--0--0--0-0-0-0--|
|--7-7-7-7/10-10-10-10-10-10--0-0--0-0--0--0--0--0-0-0-0--|

|-------------------------------------------------------|
|-------------------------------------------------------|
|--9-9-9-9-9-9-9-9-9-9-9/5-5-5-5-5-5-5/7-7-7-7-7-7-7-7--|
|--7-7-7-7-7-7-7-7-7-7-7/3-3-3-3-3-3-3/5-5-5-5-5-5-5-5--|
|--7-7-7-7-7-7-7-7-7-7-7/3-3-3-3-3-3-3/5-5-5-5-5-5-5-5--|
|--7-7-7-7-7-7-7-7-7-7-7/3-3-3-3-3-3-3/5-5-5-5-5-5-5-5--|

|---------------------------------------------------------|
|---------------------------------------------------------|
|--9-9-9-9/12-12-12-12-12-12------------------------------|
|--7-7-7-7/10-10-10-10-10-10--0-0--0-0--0--0--0--0-0-0-0--| x2
|--7-7-7-7/10-10-10-10-10-10--0-0--0-0--0--0--0--0-0-0-0--|
|--7-7-7-7/10-10-10-10-10-10--0-0--0-0--0--0--0--0-0-0-0--|

----------------------------------------------------------------------------
----------------------------------------------------------------------------
8.Mistakes

Kutless-Mistakes
From:Hearts Of The Innocent
Standard Tuning E-A-D-G-B-E

*=harmonic

Intro
Gtr. 1
E[-12*/12*-----------------------12*/12*----------------------]
B[--------12*/12*------------7*---------12*/12*---------------]
G[---------------7*/7*-5*/5*--------------------7*/7*---------]
D[---------------------------------------------------7*/7*----]

E[-12*/12*-----------------------12*/12*------------------------12*----]
B[--------12*/12*------------7*---------12*/12*------------------------]
G[---------------7*/7*-5*/5*--------------------7*/7*------12*---------]
D[---------------------------------------------------7*/7*-------------]

Verse 1
Gtr. 2
Am Em G D x5
Am Em D C

Chorus
Gtr. 2
G D Em C x4

Gtr. 1
B[-12*/12*-------------------------12*------12*-------]
G[--------12*/12*----7*/7*------------12*------12*----]
D[------------------------7*/7*--7*-------7*----------]

B[-12*/12*-------------------------12*-------]
G[--------12*/12*----7*/7*------------12*----]
D[------------------------7*/7*--7*----------]

B[-12*/12*-------------------------12*------12*-------]
G[--------12*/12*----7*/7*------------12*------12*----]
D[------------------------7*/7*--7*-------7*----------]

B[-12*/12*-------------------------12*-------]
G[--------12*/12*----7*/7*------------12*----]
D[------------------------7*/7*--7*----------]

Post-Chorus
Gtr. 2
Am Em G D

Gtr. 1
E[-12*/12*-----------------------12*/12*------------------------12*----]
B[--------12*/12*------------7*---------12*/12*------------------------]
G[---------------7*/7*-5*/5*--------------------7*/7*------12*---------]
D[---------------------------------------------------7*/7*-------------]

Verse 2
Gtr. 2
Am Em G D x3
then
Gtr. 2
Am Em G D x2

Gtr. 1
E[-12*/12*-----------------------12*/12*----------------------]
B[--------12*/12*------------7*---------12*/12*---------------]
G[---------------7*/7*-5*/5*--------------------7*/7*---------]
D[---------------------------------------------------7*/7*----]

E[-12*/12*-----------------------12*/12*------------------------12*----]
B[--------12*/12*------------7*---------12*/12*------------------------]
G[---------------7*/7*-5*/5*--------------------7*/7*------12*---------]
D[---------------------------------------------------7*/7*-------------]
Then
Am Em D C

Chorus

Bridge
Gtr. 1
D[-7*----]
Gtr. 2
D C D C
D Em Am C

Chorus 2
Gtr. 1
B[-12*/12*-------------------------12*------12*-------]
G[--------12*/12*----7*/7*------------12*------12*----]
D[------------------------7*/7*--7*-------7*----------]

B[-12*/12*-------------------------12*-------]
G[--------12*/12*----7*/7*------------12*----]
D[------------------------7*/7*--7*----------]
Then
Gtr. 2
G D Em C x6

Gtr. 1
B[-12*/12*-------------------------12*------12*-------]
G[--------12*/12*----7*/7*------------12*------12*----]
D[------------------------7*/7*--7*-------7*----------]

B[-12*/12*-------------------------12*-------]
G[--------12*/12*----7*/7*------------12*----]
D[------------------------7*/7*--7*----------]

B[-12*/12*-------------------------12*------12*-------]
G[--------12*/12*----7*/7*------------12*------12*----]
D[------------------------7*/7*--7*-------7*----------]

B[-12*/12*-------------------------12*-------]
G[--------12*/12*----7*/7*------------12*----]
D[------------------------7*/7*--7*----------]

B[-12*/12*-------------------------12*------12*-------]
G[--------12*/12*----7*/7*------------12*------12*----]
D[------------------------7*/7*--7*-------7*----------]

B[-12*/12*-------------------------12*-------]
G[--------12*/12*----7*/7*------------12*----]
D[------------------------7*/7*--7*----------]

End on
G

----------------------------------------------------------------------------
----------------------------------------------------------------------------
9.Push me away

SORRY ABOUT IT BEING SQUISHED IN THE BRIDGE BUT YOU CAN STILL READ IT

Intro
Guitar 1
THE WHOLE INTRO IS IN HARMONICS
eb|-12-12-------12-12-------12--12--|-12-12----12-12-----12-12-------|
Bb|-------12-12-------12-12---12—12-|--------------------------------|
Gb|---------------------------------|--------------------------------|
Db|---------------------------------|-------7-7------7-7-------7-----|
Ab|---------------------------------|--------------------------------|
Db|---------------------------------|--------------------------------|

Guitar 2
NOT IN HARMONICS
eb|---------------------------------|--------------------------------|
Bb|---------------------------------|--------------------------------|
Gb|-9-9-9-9-9-9-9-9-9-9-9-9-9-9-9-9-|-9-9-9-9-9-9-9-9-9-9-9-9-9-9-9-9|
Db|-9-9-9-9-9-9-9-9-9-9-9-9-9-9-9-9-|-7-7-7-7-7-7-7-7-7-7-7-7-7-7-7-7|
Ab|-7-7-7-7-7-7-7-7-7-7-7-7-7-7-7-7-|-7-7-7-7-7-7—7-7-7-7-7-7-7-7-7-7|
Db|---------------------------------|-7-7-7-7-7-7-7-7-7-7-7-7-7-7-7-7|

Intro (continued)
eb|-12-12-----12-12------12-----------------------|
Bb|----------------------------7-7--7-7--7-7--7-7-|
Gb|-------7-7-------7-7-----7--7-7--7-7--7-7--7-7-|
Db|-----------------------------------------------|
Ab|-----------------------------------------------|
Db|-----------------------------------------------|

eb|-----------------------------------------------|
Bb|-----------------------------------------------|
Gb|-7-7-7-7-7-7-7-7-7-7-7-7-7-7-7-7-7-7-7-7-7-7-7-|
Db|-7-7-7-7-7-7-7-7-7-7-7-7-7-7-7-7-7-7-7-7-7-7-7-|
Ab|-5-5-5-5-5-5-5-5-5-5-5-5-5-5-5-5-5-5-5-5-5-5-5-|
Db|-----------------------------------------------|

Verse
Both guitars
This is basically the same thing as the intro just without the harmonics
eb|---------------------------------|--------------------------------|
Bb|---------------------------------|--------------------------------|
Gb|-9-9-9-9-9-9-9-9-9-9-9-9-9-9-9-9-|-9-9-9-9-9-9-9-9-9-9-9-9-9-9-9-9|
Db|-9-9-9-9-9-9-9-9-9-9-9-9-9-9-9-9-|-7-7-7-7-7-7-7-7-7-7-7-7-7-7-7-7|
Ab|-7-7-7-7-7-7-7-7-7-7-7-7-7-7-7-7-|-7-7-7-7-7-7—7-7-7-7-7-7-7-7-7-7|
Db|---------------------------------|-7-7-7-7-7-7-7-7-7-7-7-7-7-7-7-7|

eb|-----------------------------------------------|
Bb|-----------------------------------------------|
Gb|-7-7-7-7-7-7-7-7-7-7-7-7-7-7-7-7-7-7-7-7-7-7-7-|
Db|-7-7-7-7-7-7-7-7-7-7-7-7-7-7-7-7-7-7-7-7-7-7-7-|
Ab|-5-5-5-5-5-5-5-5-5-5-5-5-5-5-5-5-5-5-5-5-5-5-5-|
Db|-----------------------------------------------|

Pre-Chours
Both Guitars
eb|-------------------------------------------------------------------------|
Bb|---------------------------------8-8-8-8-8-8-8-8-10-10-10-10-12-12-12-12-|
Gb|-5-5-5-5-5-5-5-5-7-7-7-7-7-7-7-7-7-7-7-7-7-7-7-7--9--9--9--9-10-10-10-10-|
Db|-5-5-5-5-5-5-5-5-7-7-7-7-7-7-7-7-5-5-5-5-5-5-5-5--7--7--7--7--9--9--9--9-|
Ab|-3-3-3-3-3-3-3-3-5-5-5-5-5-5-5-5-----------------------------------------|
Db|-------------------------------------------------------------------------|

eb|---------------------------------|
Bb|---------------------------------|
Gb|-5-5-5-5-5-5-5-5-7-7-7-7-7-7-7-7-|
Db|-5-5-5-5-5-5-5-5-7-7-7-7-7-7-7-7-|
Ab|-3-3-3-3-3-3-3-3-5-5-5-5-5-5-5-5-|
Db|---------------------------------|


Chorus
Guitar 1
eb|-----------------------------------------------------------------------------|
Bb|-----------------------------------------------------------------------------|
Gb|-----------------------------------------------------------------------------|
Db|-2-2-2----2-5-5-2---2-0-0-0-0-7-7-7-7--2-2-2----2-5-5-2----2-0-0-0-0-7-7-7-7-|
Ab|-2-2---2----5-5---2---0-0-0-0-7-7-7-7--2-2---2----5-5---2----0-0-0-0-7-7-7-7-|
Db|-2-2--------5-5-------0-0-0-0-7-7-7-7--2-2--------5-5--------0-0-0-0-7-7-7-7-|

eb|--------------------------------------------------------------------------------------|
Bb|--------------------------------------------------------------------------------------|
Gb|--------------------------------------------------------------------------------------|
Db|-2-2-2----2-5-5-2----2-0-0-0-0-7-7-7-7-10-10-10-10-10-10-10-10-12-12-12-12-12-12-12-12|
Ab|-2-2---2----5-5---2----0-0-0-0-7-7-7-7-10-10-10-10-10-10-10-10-12-12-12-12-12-12-12-12|
Db|-2-2--------5-5--------0-0-0-0-7-7-7-7-10-10-10-10-10-10-10-10-12-12-12-12-12-12-12-12|

Chorus
Guitar 2
eb|-----------------------------------------------------------------------------|
Bb|-----------------------------------------------------------------------------|
Gb|-----------------------------------------------------------------------------|
Db|-2-2-2----2-5-5-2---2-0-0-0-0-7-7-7-7--2-2-2----2-5-5-2----2-0-0-0-0-7-7-7-7-|
Ab|-2-2---2----5-5---2---0-0-0-0-7-7-7-7--2-2---2----5-5---2----0-0-0-0-7-7-7-7-|
Db|-2-2--------5-5-------0-0-0-0-7-7-7-7--2-2--------5-5--------0-0-0-0-7-7-7-7-|

eb|---------------------------------------------------------------------|
Bb|---------------------------------------------------------------------|
Gb|---------------------------------------------------------------------|
Db|-2-2-2----2-5-5-2----2-0-0-0-0-7-7-7-7-9-9^7---9-9b10r-9-9^7-------9-|
Ab|-2-2---2----5-5---2----0-0-0-0-7-7-7-7-------7---------------5—7^9---|
Db|-2-2--------5-5--------0-0-0-0-7-7-7-7-------------------------------|

Verse 2
Guitar 1
eb|-12-12-------12-12-------12--12--|-12-12----12-12-----12-12-------|
Bb|-------12-12-------12-12---12—12-|--------------------------------|
Gb|---------------------------------|--------------------------------|
Db|---------------------------------|-------7-7------7-7-------7-----|
Ab|---------------------------------|--------------------------------|
Db|---------------------------------|--------------------------------|

Guitar 2
eb|---------------------------------|--------------------------------|
Bb|---------------------------------|--------------------------------|
Gb|-9-9-9-9-9-9-9-9-9-9-9-9-9-9-9-9-|-9-9-9-9-9-9-9-9-9-9-9-9-9-9-9-9|
Db|-9-9-9-9-9-9-9-9-9-9-9-9-9-9-9-9-|-7-7-7-7-7-7-7-7-7-7-7-7-7-7-7-7|
Ab|-7-7-7-7-7-7-7-7-7-7-7-7-7-7-7-7-|-7-7-7-7-7-7—7-7-7-7-7-7-7-7-7-7|
Db|---------------------------------|-7-7-7-7-7-7-7-7-7-7-7-7-7-7-7-7|

Guitar 1
eb|-12-12-----12-12------12-----------------------|
Bb|----------------------------7-7--7-7--7-7--7-7-|
Gb|-------7-7-------7-7-----7--7-7--7-7--7-7--7-7-|
Db|-----------------------------------------------|
Ab|-----------------------------------------------|
Db|-----------------------------------------------|

Guitar 2
eb|-----------------------------------------------|
Bb|-----------------------------------------------|
Gb|-7-7-7-7-7-7-7-7-7-7-7-7-7-7-7-7-7-7-7-7-7-7-7-|
Db|-7-7-7-7-7-7-7-7-7-7-7-7-7-7-7-7-7-7-7-7-7-7-7-|
Ab|-5-5-5-5-5-5-5-5-5-5-5-5-5-5-5-5-5-5-5-5-5-5-5-|
Db|-----------------------------------------------|

Bridge
Guitar 1
eb|---------------------------------------------------------------------------------|
Bb|---------------------------------------------------------------------------------|
Gb|-/9-9-9-9-7----------------------12--12--12--12--14b15--12--12--12--12-14^12--12-|
Db|-/x-x-x-x-x------/9-9-9-9-7-------14--14--14--14---------14--14--14--14----14---|
Ab|-/7-7-7-7-5-------/x-x-x-x-x-----------------------------------------------------|
Db|------------------/9-9-9-9-7-----------------------------------------------------|

eb|---------------------------------------------------------------------------------|
Bb|---------------------------------------------------------------------------------|
Gb|-/9-9-9-9-7----------------------12--12--12--12--14b15--12--12--12--12—14^12--12-|
Db|-/x-x-x-x-x-------/9-9-9-9-7-------14--14--14--14---------14--14--14--14----14---|
Ab|-/7-7-7-7-5-------/x-x-x-x-x-----------------------------------------------------|
Db|------------------/9-9-9-9-7-----------------------------------------------------|


eb|---------------------------------------------------------------------------------|
Bb|---------------------------------------------------------------------------------|
Gb|-/9-9-9-9-7----------------------12--12--12--12--14b15--12--12--12--12—14^12--12-|
Db|-/x-x-x-x-x-------/9-9-9-9-7-------14--14--14--14---------14--14--14--14----14---|
Ab|-/7-7-7-7-5-------/x-x-x-x-x-----------------------------------------------------|
Db|------------------/9-9-9-9-7-----------------------------------------------------|

Bridge Guitar 2
eb|--------------------------------------------------------------------------------|
Bb|--------------------------------------------------------------------------------|
Gb|-/7-7-7-7-5---------------------------------------------------------------------|
Db|-/x-x-x-x-x------/9-9-9-9-7-----------------------------------------------------|
Ab|-/7-7-7-7-5------/x-x-x-x-x-----------------------------------------------------|
Db|-----------------/9-9-9-9-7—5h7-7-5h7-7-5h7-7-5h7-7-0-5h7-7-5h7-7-5h7-7-5h7-7-0-|

eb|--------------------------------------------------------------------------------|
Bb|--------------------------------------------------------------------------------|
Gb|-/7-7-7-7-5---------------------------------------------------------------------|
Db|-/x-x-x-x-x------/9-9-9-9-7-----------------------------------------------------|
Ab|-/7-7-7-7-5------/x-x-x-x-x-----------------------------------------------------|
Db|-----------------/9-9-9-9-7—5h7-7-5h7-7-5h7-7-5h7-7-0-5h7-7-5h7-7-5h7-7-5h7-7-0-|

eb|-------------------------------------------------------|
Bb|-------------------------------------------------------|
Gb|-/7-7-7-7-5--------------------------------------------|
Db|-/x-x-x-x-x------/9-9-9-9-7-------------14^12----14^12-|
Ab|-/7-7-7-7-5------/x-x-x-x-x-------------------14-------|
Db|-----------------/9-9-9-9-7—---------------------------|

Outro
Both Guitars

eb|---------------------------------------|
Bb|---------------------------------------|
Gb|---------------------------------------|
Db|---------------------------------------|
Ab|-2^0^2^0-----2--2-----0---0------5--5--|
Db|---------2--2-2---5-5---5----0-0---0---|

----------------------------------------------------------------------------
----------------------------------------------------------------------------
10.Changing World

It's a 
easy song so it should be all correct except I didn't bother with figuring out the picking 
the verses so I just strum the chords.


Intro/VERSE: (clean)
      G#       F#maj      E        F#maj
e|-44444444--22222222--00000000--22222222--|
B|-44444444--22222222--00000000--22222222--|       (Repeat 2x for verse)
G|-44444444--33333333--11111111--33333333--|
D|-66666666--44444444--22222222--44444444--|
A|-66666666--44444444--22222222--44444444--|
E|-44444444--22222222--00000000--22222222--|


Pre-chorus:
e|--00000000--44444444--22222222--|
B|--00000000--44444444--22222222--|
G|--11111111--44444444--33333333--|        (Repeat 2x)
D|--22222222--66666666--44444444--|
A|--22222222--66666666--44444444--|
E|--00000000--44444444--22222222--|


CHORUS: distortion
e|------------------------------------------|
B|------------------------------------------|
G|------------------------------------------|     (REPEAT 4x)
D|-6-6-6-6--2-2-2-2--9-9-9-9--4-4-4-4--6~---|
A|-6-6-6-6--2-2-2-2--9-9-9-9--4-4-4-4--6~---|
E|-4-4-4-4--0-0-0-0--7-7-7-7--2-2-2-2--4~---|


-Repeat Intro/Verse
-Repeat Pre-chorus
-Repeat Chorus


Bridge:
e|-----------------------|
B|-----------------------|
G|-----------------------|      (Repeat 4x)
D|-66666666--9999--4444--|
A|-66666666--9999--4444--|
E|-44444666--7777--2222--|

Repeat Chorus

End on
 ---
 ---
 ---
 -4-
 -4-
 -2-

----------------------------------------------------------------------------
----------------------------------------------------------------------------
11.Million Dollar Man

Intro guitar 1: 00:00
E|--------------------------------------------|
B|--------------------------------------------|
G|--------------------------------------------|
D|--0000----000---------0000----000-----------|
A|--0000----000---------0000----000-----------|
D|--0000----000---------0000----000-----------|

guitar 2: 00:00
E|--------------------------------------------|
B|-------6------5h6p5--------6------5h6p5-----|
G|-------9-----------7-------9-----------7----|
D|--------------------------------------------|
A|--------------------------------------------|
D|--------------------------------------------|

guitar 1: 00:05
E|---------------------------|
B|---------------------------|
G|---------------------------|
D|--8888------888------------|
A|--8888------888------------|
D|--8888------888------------|x2

guitar 2: 00:05
E|---------------------------|
B|---------------------------|
G|---------9------7h9p7------|
D|--------10-----------10----|
A|---------------------------|
D|---------------------------|x2

guitar 1: 00:10
E|-----------------------------------------|
B|-----------------------------------------|
G|-----------------------------------------|
D|--0000---000--------0000---000-----------|
A|--0000---000--------0000---000-----------|
D|--0000---000--------0000---000-----------|

guitar 2: 00:10
E|-----------------------------------------|
B|-------6-----5h6p5--------6----5h6p5-----|
G|-------9----------7-------9---------7----|
D|-----------------------------------------|
A|-----------------------------------------|
D|-----------------------------------------|

guitar 1: 00:15
E|--------------------------------------------------------|
B|--------------------------------------------------------|
G|--------------------------------------------------------|
D|--8888-----8-8-8----------10-10-10-10------10-10-10x/x--|
A|--8888-----8-8-8----------10-10-10-10------10-10-10x/x--|
D|--8888-----8-8-8----------10-10-10-10------10-10-10x/x--|

guitar 2: 00:15
E|--------------------------------------------------------|
B|--------------------------------------------------------|
G|---------9-------7h9p7------------------9---------------|
D|--------10------------10---------------10----------x/x--|
A|---------------------------------------------------x/x--|
D|---------------------------------------------------x/x--|

guitar 1: 00:21
E|--------------------------------------------------------------|
B|--------------------------------------------------------------|
G|----------------5-5-5-5-5------------------------55555-77777--|
D|--00000--33333--5-5-5-5-5---55555--00000--33333--55555-55555--|
A|--00000--33333--3-3-3-3-3---55555--00000--33333--33333-55555--|
D|--00000--33333--------------55555--00000--33333--------55555--|

guitar 2: 00:21
E|--------------------------------------------------------------|
B|--66666--55555--1010101010--33333--66666--55555---------------|
G|--77777--55555--1010101010--00000--77777--55555--53333-77777--|
D|-------------------------------------------------53333-xxxxx--|
A|-------------------------------------------------33333-55555--|
D|--------------------------------------------------------------|

guitars 1: 00:31
E|---------------------------------|
B|---------------------------------|
G|---------------------------------|
D|--000---000---888---10-10-10-----|
A|--000---000---888---10-10-10-----|
D|--000---000---888---10-10-10-----|

guitars 2: 00:31
E|---------------------------------|
B|------6-----6-----6--------------|
G|------9-----9-----7-----------9--|
D|-----------------------------10--|
A|---------------------------------|
D|---------------------------------|

guitars 1: 00:36
E|---------------------------------|
B|---------------------------------|
G|---------------------------------|
D|--000---000---888---10-10-10-----|
A|--000---000---888---10-10-10-----|
D|--000---000---888---10-10-10-----|x2

guitars 2: 00:36
E|---------------------------------|
B|------6-----6-----6--------------|
G|------9-----9-----7-----------9--|
D|-----------------------------10--|
A|---------------------------------|
D|---------------------------------|x2

guitar 1: 00:47
E|--------------------------------------|
B|--------------------------------------|
G|--------------------------------------|
D|--000---000---888---10-10-10----------|
A|--000---000---888---10-10-10----------|
D|--000---000---888---10-10-10----------|

guitar 2: 00:47
E|--------------------------------------|
B|------6-----6-----6-------------------|
G|------9-----9-----7----------7h9p7----|
D|----------------------------------10--|
A|--------------------------------------|
D|--------------------------------------|

guitar 1: 00:52
E|--------------|
B|--------------|
G|--10----------|
D|--8-----10----|
A|--8-----10----|
D|--8-----10----|

Chorus guitar 1: 00:58
E|----------------------|
B|----------------------|
G|------------5---------|
D|--0----3----5----5----|
A|--0----3----3----5----|
D|--0----3---------5----|x3

guitar 2: 00:58 each little chord hit 5 times
E|--------5-----------------------5-------|
B|--6--5--6--3--6--5--------6--5--6--3----|
G|--7--5-----0--7--5--5--7--7--5-----0----|
D|--------------------5--x----------------|
A|--------------------3--5----------------|
D|----------------------------------------|

guitar 1: 01:13
E|------------|
B|------------|
G|-------5----|
D|--3----5----|
A|--3----3----|
D|--3---------|

link from chorus to verse 2 guitar 1: 01:19
E|---------------------------------|
B|---------------------------------|
G|---------------------------------|
D|--000---000---888---10-10-10-----|
A|--000---000---888---10-10-10-----|
D|--000---000---888---10-10-10-----|

link from chorus to verse 2 guitar 2: 01:19
E|---------------------------------|
B|------6-----6-----6--------------|
G|------9-----9-----7-----------9--|
D|-----------------------------10--|
A|---------------------------------|
D|---------------------------------|

verse 2 guitars 1: 01:24
E|---------------------------------|
B|---------------------------------|
G|---------------------------------|
D|--000---000---888---10-10-10-----|
A|--000---000---888---10-10-10-----|
D|--000---000---888---10-10-10-----|x2

verse 2 guitars 2: 01:24
E|---------------------------------|
B|------6-----6-----6--------------|
G|------9-----9-----7-----------9--|
D|-----------------------------10--|
A|---------------------------------|
D|---------------------------------|x2

guitar 1: 01:34
E|--------------------------------------|
B|--------------------------------------|
G|--------------------------------------|
D|--000---000---888---10-10-10----------|
A|--000---000---888---10-10-10----------|
D|--000---000---888---10-10-10----------|

guitar 2: 01:34
E|--------------------------------------|
B|------6-----6-----6-------------------|
G|------9-----9-----7----------7h9p7----|
D|----------------------------------10--|
A|--------------------------------------|
D|--------------------------------------|

guitar 1: 01:40
E|--------------|
B|--------------|
G|--10----------|
D|--8-----10----|
A|--8-----10----|
D|--8-----10----|

Chorus guitar 1: 01:45
E|----------------------|
B|----------------------|
G|------------5---------|
D|--0----3----5----5----|
A|--0----3----3----5----|
D|--0----3---------5----|x3

guitar 2: 01:45 each little chord hit 5 times
E|--------5-----------------------5-------|
B|--6--5--6--3--6--5--------6--5--6--3----|
G|--7--5-----0--7--5--5--7--7--5-----0----|
D|--------------------5--x----------------|
A|--------------------3--5----------------|
D|----------------------------------------|

guitar 1: 02:01
E|------------|
B|------------|
G|-------5----|
D|--3----5----|
A|--3----3----|
D|--3---------|

Bridge guitar 1: 02:06/02:11-|
E|--------------|            |
B|--------------|            |
G|--10----------|            |
D|--8-----10----|            |
A|--8-----10----|            |
D|--8-----10----|            |
                             |
guitar 2: 02:06/02:11        |
E|------------------------|  |
B|------------------------|  |
G|--10----7----9----10----|  |
D|--x-----x----x----x-----|  |
A|--8-----5----7----8-----|  |
D|------------------------|  |
                             |
guitars 1 and 2: 02:09/02:14 |
E|----------------------|    |
B|----------------------|    |
G|-------7------10------|    |play 2 times
D|--000--x--000--x------|    |
A|--000--5--000--8------|    |
D|--000-----000---------|    |
                        -----|
Bridge continued guitar 1: 02:16
E|--------------|
B|--------------|
G|--10----------|
D|--8-----10----|
A|--8-----10----|
D|--8-----10----|

guitar 2: 02:16
E|------------------------|
B|------------------------|
G|--10----7----9----10----|
D|--x-----x----x----x-----|
A|--8-----5----7----8-----|
D|------------------------|

guitars 1 and 2: 02:19
E|-------------|
B|-------------|
G|-------7-----|
D|--000--x-----|
A|--000--5-----|
D|--000--------|

Chorus guitar 1: 02:21
E|----------------------|
B|----------------------|
G|------------5---------|
D|--0----3----5----5----|
A|--0----3----3----5----|
D|--0----3---------5----|x3

guitar 2: 02:21 each little chord hit 5 times
E|--------5-----------------------5-------|
B|--6--5--6--3--6--5--------6--5--6--3----|
G|--7--5-----0--7--5--5--7--7--5-----0----|
D|--------------------5--x----------------|
A|--------------------3--5----------------|
D|----------------------------------------|

guitar 1: 02:38
E|------------|
B|------------|
G|-------5----|
D|--3----5----|
A|--3----3----|
D|--3---------|

outro guitar 1: 02:43
E|--------------|
B|--------------|
G|--10----------|
D|--8-----10----|
A|--8-----10----|
D|--8-----10----|

guitar 2: 02:43
E|------------------------|
B|------------------------|
G|--10----7----9----10----|
D|--x-----x----x----x-----|
A|--8-----5----7----8-----|
D|------------------------|

guitars 1 and 2: 02:45
E|-------------|
B|-------------|
G|-------7-----|
D|--000--x-----|
A|--000--5-----|
D|--000--------|

----------------------------------------------------------------------------
----------------------------------------------------------------------------
12.Legacy

Tuning:standard


INTRO:
e|-------------------------------------------------------------------------|
B|-------------------------------------------------------------------------|
G|-------------------------------------------------------------------------|
D|-22222222--77-9--77-9--22222222--77-9--22222222--77-9--22222222--77-9----|
A|-22222222--77-9--77-9--22222222--77-9--22222222--77-9--22222222--77-9----|
E|-00000000--55-7--55-7--00000000--55-7--00000000--55-7--00000000--55-7----|
                                                                   PM

Verse:
e|-----------------------------------|---- 
B|-----------------------------------|---- 
G|---------------------------------------- -   -  (Repeat 2x)
D|-22222222-22222222-22222222--77-9--|  -- 
A|-22222222-22222222-22222222--77-9--|---- 
E|-00000000-00000000-00000000--55-7--|---- 
PM *******  *******  *****


PRE-CHORUS:
e|-----------------------|---- 
B|-----------------------|---- 
G|---------------------------- -   -    (Repeat 2x)
D|-7-7777777--9-9999999--|  -- 
A|-7-7777777--9-9999999--|---- 
E|-5-5555555--7-7777777--|---- 


CHORUS:
e|-------------------------------------------------------------------------|
B|-------------------------------------------------------------------------|
G|-66666666-44444444-99999999-----999----66666666-44444444-99999999--------|
D|-66666666-44444444-99999999-999-999-99-66666666-44444444-99999999--------|
A|-44444444-22222222-77777777-999-777-99-44444444-22222222-77777777--------|
E|----------------------------777-----77-----------------------------------|

e|-------------------------------------------------------------------------|
B|-------------------------------------------------------------------------|
G|-----999----66666666-44444444-99999999-666-999---------------------------|
D|-999-999-99-66666666-44444444-99999999-666-999-7777777777777777----------|
A|-999-777-99-44444444-22222222-77777777-444-777-7777777777777777----------|
E|-777-----77------------------------------------5555555555555555----------|

e|-------------------|
B|-------------------|
G|-------------------|
D|-9999999999999999--|
A|-9999999999999999--|
E|-7777777777777777--|

-Repeat INTRO
-Repeat VERSE
-Repeat PRE-CHORUS
-Repeat CHORUS

BRIDGE
e|-------------------------------------------------------------------------|
B|-------------------------------------------------------------------------|
G|-------------------------------------------------------------------------|
D|-11-11-11-11-9999-77777777-99999999-11-11-11-11-11-11-11-11-11-99999999--|
A|-11-11-11-11-9999-77777777-99999999-11-11-11-11-11-11-11-11-11-99999999--|
E|-9--9--9--9--7777-55555555-77777777-9--9--9--9--9--9--9--9--9--77777777--|

e|-------------------------------------------------------------------------|
B|-------------------------------------------------------------------------|
G|-------------------------------------------------------------------------|
D|-11-11-11-11-11-11-11-11-99999999-77777777-------------------------------|
A|-11-11-11-11-11-11-11-11-99999999-77777777-------------------------------|
E|-9--9--9--9--9--9--9--9--77777777-55555555-------------------------------|

e|-------------------------------------------------------------------------|
B|-------------------------------------------------------------------------|
G|--6666666666666666-8888888888888888-9999999999999999-11-11-11-11-11-11-11|
D|-------------------------------------------------------------------------|
A|-------------------------------------------------------------------------|
E|-------------------------------------------------------------------------|

e|---------------------|
B|---------------------|
G|-11-11-11------------|
D|----------77-9--77-9-|
A|----------77-9--77-9-|
E|----------55-7--55-7-|
PM          **    **

-Repeat CHORUS

Ending of last chorus>>>>>>>>>>>>>>>  OUTRO(2x)>>>>>>>>>>>>>>
e|-------------------------------------------------------------------------|
B|-------------------------------------------------------------------------|
G|-------------------------------------------------------------------------|
D|-7777777777777777-9999999999999999--2-222-22-7-777-77-9-999-99999999-----|
A|-7777777777777777-9999999999999999--2-222-22-7-777-77-9-999-99999999-----|
E|-5555555555555555-7777777777777777--0-000-00-5-555-55-7-777-77777777-----|
PM                                    *        *        *


            
            
Suggest correction
Creating personal tab
Creating personal tab
You can edit any tab online and save it as your Personal.

You can edit, replace or remove any tab part or add personal notes – all changes will be seen only by you.

Personal tabs can be accessed anytime from any device, even offline.
Learn more »
Give kudos to tab author, rate the tab!
1 2 3 4 5
comments
print report bad tab
guest
You may want to rate the tab now too:
select rating
Wanna post a correction for this tab? Suggest correction