Oops, an error
Loading. Please wait.

Im Still Yours chords

version 1
version 1

Whole song

by Kutless
32,893 views 6 this week
11 commentsread comments
1 2 3 4 5
x 5
add to favorites
×
Save as Personal and add changes to this tab that will be seen only by you. Learn more ›
×
You can save this tab as Personal to edit and correct it or add notes. All changes will be seen only by you. Learn more »
launch autoscroll
font size
0
reset
transpose
0
reset
simplify chords
display chords
guitar tuner
edit
Autoscroll
slow
fast
+/-
esc
set tempo
stop
Author
Strumming
There is no strumming pattern for this song yet. and get +5 IQ
Band - Kutless
Song - I'm Still Yours
Album - It Is Well


The tuning is actually not Open D
But its really close. Im not real sure
What its called though. Basiclly you
tune your 2 E strings to D. 

[Intro]

    Bm      G          D        A
D|------0--------0---------0--------0-----|
B|--------3--------3---------3--------3---|
G|----4--------0---------2--------2-------|
D|---4--------0---------0--------2--------|
A|--2---------------------------0---------|
D|----------5---------0-------------------|

You play this twice but the second time
You leave the A off and let the D ring

[Verse 1]

       Bm     G       D
If You washed away my vanity
       Bm   G       D
If You took away my words
   Bm     G         D      A
If all my world was swept away
      Bm     G          D
Would You be enough for me?
         Bm      G           A
Would my beating heart still sing?

[Chorus]

     D
If I lost it all
         Bm
Would my hands stay lifted
       G                 A
To the God who gives and takes away
       D
If You take it all
     Bm
This life You've given
G                   Asus    A
Still my heart will sing to You  (Intro Progression)

[Verse 2]

        Bm          G        D
When my life is not what I expected
    Bm      G          D
The plans I made have failed
             Bm      G       D        A
When there's nothing left to steal me away
     Bm     G          D
Will You be enough for me?
        Bm     G           A
Will my broken heart still sing?  (Chorus)

[Bridge]

            Em           D
Even if You take it all away
       G
You'll never let me go
Em          D
Take it all away
      A
But I still know
     Bm   A  D
That I....'m Yours
G   A     Bm  A  G
I'm still Yoooouuurs
    Bm   A  D
Oh, I....'m Yours
G   A     Bm  A  G
I'm still Yoooouuurs

Bm   G   D   A         Bm   G   D
(Intro)      I'm still Yours

 So heres how you play chords when in this tuning.
    Bm      G      D     Asus    A
D|--0---|---0--|---0--|---0--|---0--|  
B|--3---|---3--|---3--|---0--|---2--|  
G|--4---|---0--|---2--|---2--|---2--|  
D|--4---|---0--|---0--|---2--|---2--|
A|--2---|---x--|---0--|---0--|---0--|
D|--x---|---5--|---0--|---x--|---x--|

Now you can play it without using chords 
and just barr the top three strings 
and if you did that you wouldnt even have to tune the high E to D,
in fact you dont HAVE to tune down at all 
but if you wanna play with the CD your gonna have to. 
But just barring the top three stings 
wouldnt sound as beautiful as the full chords anyway.



************************************

| x  Dead note

************************************

            
            
Suggest correction
Creating personal tab
Creating personal tab
You can edit any tab online and save it as your Personal.

You can edit, replace or remove any tab part or add personal notes – all changes will be seen only by you.

Personal tabs can be accessed anytime from any device, even offline.
Learn more »
comments
print report bad tab
11 comments total. Showing first comments.
0 reply
Beminem 52 Jan 25, 2010 11:42 AM

Are you sure it's drop d?

0 reply
addicted2gtrs 295 Jan 26, 2010 10:56 AM

yeah listen to the song and theres no way u can play tht in standard

0 reply
Kyevil 31 Feb 18, 2010 08:49 PM

yea its drop d
Intros pretty wrong tho
d----------------------------------------------------------|
B------3-----------------3---------------3------3--------3-|
G---2----2--0----------0------2-2----2------2---------2----|
D-----4----4-------0-4---------4-------4-----4----2/4------|
A--2-------------------------------------------------------|
D---------------5-------------------0----------------------|
d-------------------|
B-------------------|
G-------------------|
D----2--2-----------|
A--5---4------------|
D-------------------|

guest
You may want to rate the tab now too:
select rating
Wanna post a correction for this tab? Suggest correction