Oops, an error
Loading. Please wait.

To Know That Youre Alive tab

version 4
version 4

Whole song

Interactive

by Kutless
4,718 views 3 this week
no commentswrite comment
1 2 3 4 5
x 4
add to favorites
×
Save as Personal and add changes to this tab that will be seen only by you. Learn more ›
×
You can save this tab as Personal to edit and correct it or add notes. All changes will be seen only by you. Learn more »
launch autoscroll
font size
0
reset
how to read this tab
guitar tuner
edit
Autoscroll
slow
fast
+/-
esc
set tempo
stop
Artist – Kutless
Song – To Know That You’re Alive (Track #3)
Album - To Know That You’re Alive (released June 2008)

I Looked up tabs, then set my base line on what to do, and made 
all the changes need to make it pretty much perfect. I tried to 
get the measures but it’s not perfect. If you listen to the song
 you will get it. I think this is exact, but you be the 
judge and rate it, please.

TUNING:
1st-d
2nd-A
3rd-F
4th-C
5th-G
6th-C

Legend
p-pull off        ~-vibrato        \-slide down
x-scratch         /-slide up       h-hammer on


Intro:

Guitar 1
D|---0---0---0---0---0---0---0---0--|
A|--6-6-6-6-6-6-6-6-8-8-8-8-8-8-8-8-|
F|-7---7---7---7---9---9---6---6----| x2
C|----------------------------------|
G|----------------------------------|
C|----------------------------------|

Guitar 2
D|----------------------------------|
A|----------------------------------|
F|----------------------------------| x2
C|----------------------------------|
G|-55555555555555554444444477777788-|
C|----------------------------------|


Verse 1:

Guitar 1
D|---0---0---0---0---0---0---0---0--|
A|--6-6-6-6-6-6-6-6-8-8-8-8-8-8-8-8-|
F|-7---7---7---7---9---9---6---6----| x2
C|----------------------------------|
G|----------------------------------|
C|----------------------------------|

Guitar 2
D|----------------------------------|
A|----------------------------------|
F|----------------------------------| x2
C|----------------------------------|
G|-55555555555555554444444477777788-|
C|----------------------------------|


Pre-Chorus:

GUITAR 2
D|---------------------------------------------------------|
A|---------------------------------------------------------|
F|---------------------------------------------------------|
C|-0------0-0------0-----10\0---0------0-0------0-----0/15-|
G|-0------0-0------0------------0------0-0------0-----0/15-|
C|-0------0-0------0------------0------0-0------0-----0/15-|

GUITAR 1
D|---------------------------------------------------------|
A|---------------------------------------------------------|
F|---5~5~-----5~5~----------------5~5~-----5~5~------------|
C|-------------------xxxx3~-----------------------xxxx3~---|
G|-------------------xxxx-------------------------xxxx-----|
C|-------------------xxxx-------------------------xxxx-----|


Pre-Chorus (cont.):

GUITAR 2
D|--------------------------------------------------------|
A|--------------------------------------------------------|
F|--------------------------------------------------------|
C|-0------0-0------0------------0------0-0-0-0------------|
G|-0------0-0------0------------0------0-0-0-0------------|
C|-0------0-0------0------------0------0-0-0-0------------|

Pre-Chorus GUITAR 1 (cont.)
D|--------------------------------------------------------|
A|--------------------------------------------------------|
F|---5~5~-----5~5~----------------5~5~----5~5~------------|
C|-------------------xxxx3~-------------------------------|
G|-------------------xxxx---------------------------------|
C|-------------------xxxx---------------------------------|


Chorus:

Guitar 2
D|-----------------------------------------------------------------|
A|-----------------------------------------------------------------|
F|---------------------------------5-5-5-5-5-5-5-5-3-3-3-3-3-3-3-3-| x2
C|-0-0-0-0-0-0-0-2-3-3-3-3-3-3-3-3-5-5-5-5-5-5-5-5-1-1-1-1-1-1-1-1-|
G|-0-0-0-0-0-0-0-2-3-3-3-3-3-3-3-3-3-3-3-3-3-3-3-3-1-1-1-1-1-1-1-1-|
C|-0-0-0-0-0-0-0-2-3-3-3-3-3-3-3-3---------------------------------|

Guitar 1                                       _____
D|--------------------------------------------|     |
A|--------------------------------------------|     |
F|-7-7-7-7-7-7-7-9-10-10-10-10-10-10-10-10-10-|     |
C|-7-7-7-7-7-7-7-9-10-10-10-10-10-10-10-10-10-|     |
G|-7-5-5-5-5-5-5-7-8--8--8--8--8--8--8--8--8--|     |
C|--------------------------------------------|     |
                                                    | x2
D|-----------------------------------------|        |
A|-----------------------------------------|        |
F|-5-5-5-5-5-5-5-5-12-12-12-12-12-12-12-12-|        |
C|-5-5-5-5-5-5-5-5-12-12-12-12-12-12-12-12-|        |
G|-5-5-5-5-5-5-5-5-12-12-12-12-12-12-12-12-|        |
C|-----------------------------------------|________|

Verse 2:

Guitar 1
D|---0---0---0---0---0---0---0---0--|
A|--6-6-6-6-6-6-6-6-8-8-8-8-8-8-8-8-|
F|-7---7---7---7---9---9---6---6----| x2
C|----------------------------------|
G|----------------------------------|
C|----------------------------------|

Guitar 2
D|----------------------------------|
A|----------------------------------|
F|----------------------------------| x2
C|----------------------------------|
G|-55555555555555554444444477777788-|
C|----------------------------------|


Pre-Chorus:

GUITAR 2
D|---------------------------------------------------------|
A|---------------------------------------------------------|
F|---------------------------------------------------------|
C|-0------0-0------0-----10\0---0------0-0------0-----0/15-|
G|-0------0-0------0------------0------0-0------0-----0/15-|
C|-0------0-0------0------------0------0-0------0-----0/15-|

GUITAR 1
D|---------------------------------------------------------|
A|---------------------------------------------------------|
F|---5~5~-----5~5~----------------5~5~-----5~5~------------|
C|-------------------xxxx3~-----------------------xxxx3~---|
G|-------------------xxxx-------------------------xxxx-----|
C|-------------------xxxx-------------------------xxxx-----|


Pre-Chorus (cont.):

GUITAR 2
D|--------------------------------------------------------|
A|--------------------------------------------------------|
F|--------------------------------------------------------|
C|-0------0-0------0------------0------0-0-0-0------------|
G|-0------0-0------0------------0------0-0-0-0------------|
C|-0------0-0------0------------0------0-0-0-0------------|

GUITAR 1
D|--------------------------------------------------------|
A|--------------------------------------------------------|
F|---5~5~-----5~5~----------------5~5~----5~5~------------|
C|-------------------xxxx3~-------------------------------|
G|-------------------xxxx---------------------------------|
C|-------------------xxxx---------------------------------|


Chorus:

Guitar 2
D|-----------------------------------------------------------------|
A|-----------------------------------------------------------------|
F|---------------------------------5-5-5-5-5-5-5-5-3-3-3-3-3-3-3-3-| x4
C|-0-0-0-0-0-0-0-2-3-3-3-3-3-3-3-3-5-5-5-5-5-5-5-5-1-1-1-1-1-1-1-1-|
G|-0-0-0-0-0-0-0-2-3-3-3-3-3-3-3-3-3-3-3-3-3-3-3-3-1-1-1-1-1-1-1-1-|
C|-0-0-0-0-0-0-0-2-3-3-3-3-3-3-3-3---------------------------------|

Guitar 1                                       _____
D|--------------------------------------------|     |
A|--------------------------------------------|     |
F|-7-7-7-7-7-7-7-9-10-10-10-10-10-10-10-10-10-|     |
C|-7-7-7-7-7-7-7-9-10-10-10-10-10-10-10-10-10-|     |
G|-7-5-5-5-5-5-5-7-8--8--8--8--8--8--8--8--8--|     |
C|--------------------------------------------|     |
                                                    | x4
D|-----------------------------------------|        |
A|-----------------------------------------|        |
F|-5-5-5-5-5-5-5-5-12-12-12-12-12-12-12-12-|        |
C|-5-5-5-5-5-5-5-5-12-12-12-12-12-12-12-12-|        |
G|-5-5-5-5-5-5-5-5-12-12-12-12-12-12-12-12-|        |
C|-----------------------------------------|________|


Bridge Pt. 1:

Guitar 1
D|---------------------------------------------------------------|
A|---------------------------------------------------------------|
F|---------------------------------------------------------------| (palm mute)
C|-0-030-0-0-030-0-0-030-0-3-0-3-5--0-030-0-0-030-0-0-030-8\0----|
G|-0-030-0-0-030-0-0-030-0-3-0-3-5--0-030-0-0-030-0-0-030-8\0----|
C|-0-030-0-0-030-0-0-030-0-3-0-3-5--0-030-0-0-030-0-0-030-8\0----| 

Guitar 2
D|---------------------------------------------------------------|
A|---------------------------------------------------------------|
F|---------------------------------------------------------------|
C|-----------------------------------------------------------8\0-|
G|-----------------------------------------------------------8\0-|
C|-----------------------------------------------------------8\0-|


Bridge Pt. 2:

Guitars 1 and 2
D|--------------------------------|
A|--------------------------------|
F|--------------------------------| x4
C|-0-xxx-0-0-xxx-0-0-xxx-0--------|
G|-0-xxx-0-0-xxx-0-0-xxx-0-8-10~--|
C|-0-xxx-0-0-xxx-0-0-xxx-0--------|


Chorus:

Guitar 2
D|-----------------------------------------------------------------|
A|-----------------------------------------------------------------|
F|---------------------------------5-5-5-5-5-5-5-5-3-3-3-3-3-3-3-3-| x4
C|-0-0-0-0-0-0-0-2-3-3-3-3-3-3-3-3-5-5-5-5-5-5-5-5-1-1-1-1-1-1-1-1-|
G|-0-0-0-0-0-0-0-2-3-3-3-3-3-3-3-3-3-3-3-3-3-3-3-3-1-1-1-1-1-1-1-1-|
C|-0-0-0-0-0-0-0-2-3-3-3-3-3-3-3-3---------------------------------|

Guitar 1                                       _____
D|--------------------------------------------|     |
A|--------------------------------------------|     |
F|-7-7-7-7-7-7-7-9-10-10-10-10-10-10-10-10-10-|     |
C|-7-7-7-7-7-7-7-9-10-10-10-10-10-10-10-10-10-|     |
G|-7-5-5-5-5-5-5-7-8--8--8--8--8--8--8--8--8--|     |
C|--------------------------------------------|     |
                                                    | x4
D|-----------------------------------------|        |
A|-----------------------------------------|        |
F|-5-5-5-5-5-5-5-5-12-12-12-12-12-12-12-12-|        |
C|-5-5-5-5-5-5-5-5-12-12-12-12-12-12-12-12-|        |
G|-5-5-5-5-5-5-5-5-12-12-12-12-12-12-12-12-|        |
C|-----------------------------------------|________|


Outro:

Guitars 1 and 2
D|----------------------------------|------------------------------------|
A|----------------------------------|------------------------------------|
F|----------------------------------|------------------------------------|
C|-0-xxx-0-0-xxx-0-0-xxx-0----------|-0-xxx-0-0-xxx-0-0-xxx-0------------|
G|-0-xxx-0-0-xxx-0-0-xxx-0-8-10~----|-0-xxx-0-0-xxx-0-0-xxx-0-888-10~----|
C|-0-xxx-0-0-xxx-0-0-xxx-0----------|-0-xxx-0-0-xxx-0-0-xxx-0------------|

D|----------------------------------|-------------------|
A|----------------------------------|-------------------|
F|----------------------------------|-------------------|
C|-0-xxx-0-0-xxx-0-0-xxx-0----------|-0-xxx-0-0-xxx-0-0-|
G|-0-xxx-0-0-xxx-0-0-xxx-0-8-10~----|-0-xxx-0-0-xxx-0-0-|
C|-0-xxx-0-0-xxx-0-0-xxx-0----------|-0-xxx-0-0-xxx-0-0-|

Done... Its over... Finished... Complete... etc. (...)

Submitted by Nate_muse_fr3k
P.S. Muse= Music


            
            
Suggest correction
Creating personal tab
Creating personal tab
You can edit any tab online and save it as your Personal.

You can edit, replace or remove any tab part or add personal notes – all changes will be seen only by you.

Personal tabs can be accessed anytime from any device, even offline.
Learn more »
comments
print report bad tab
guest
Wanna post a correction for this tab? Suggest correction