Oops, an error
Loading. Please wait.

2 Instantes chords

by Kyosko
31 views 1 this week
no commentswrite comment
1 2 3 4 5
3 more votes to show rating
add to favorites
×
Save as Personal and add changes to this tab that will be seen only by you. Learn more ›
×
You can save this tab as Personal to edit and correct it or add notes. All changes will be seen only by you. Learn more »
launch autoscroll
font size
0
reset
transpose
0
reset
simplify chords
display chords
guitar tuner
edit
Autoscroll
slow
fast
+/-
esc
set tempo
stop
Strumming
There is no strumming pattern for this song yet. and get +5 IQ
Hola gente! eLTurCo Hassan por acá.. todo bien!!?
Que lindo volver a subir canciones después de un año tan largo!
Bueno, esta transcripción está dedicada a nuestro hermano Ariel
quien me la pidió para un toque...DALE CON FUERZA ARIEL!
Quee Dios los bendiga mucho!

Aguante CRISTO y Kyosko!
Ahh! cualquier cosa me escriben: turc-73@


2 Instantes - KYOSKO
Album:  "2 instantes Reedición" AÑO 2003
Música: Fabián Liendo, Ezequiel Bisio
Letra: Fabián Liendo

Intro:
--------------------------------------------------------|E 6ta.
--2-------------------------------------------------(2)-|A 5ta.
---------------4--2----4------4----4--------------------|D 4ta.
-------4--2-----------------------2--------2-----4------|G 3ra.
--------------------------------------------------------|B 2da.
--------------------------------------------------------|E 1ra.

RIFF:

---7------5----------7-----5----------------------------|E 6ta.
---9------7----------9-----7-------------9--------------|A 5ta.
---9------7----------9-----7---------------------7----9-|D 4ta.
---x------x-----------x-----x---------------------------|G 3ra.
---x------x-----------x-----x---------------------------|B 2da.
---x------x-----------x-----x---------------------------|E 1ra.
 B5     A5         B5    A5


Riff 1
Yo no pude comprender todo lo que te hablé, |Riff 1|
                   F#       Riff 1
cuando dije: todo cambia y se va.
Riff 1
El momento siempre fue tan fiel a mi, |Riff 1|
                  F#         Riff 1
todo se genera en su propio lugar.
Riff 1
El espacio ahora me hizo comprender |Riff 1|
              F#             Riff 1
que uno 2 instantes y mi vida fue.

G#m                   E   B
Te vi y el río me cubrió, en tu cuello pude ver |F#|
colgada mi niñez.

idem estrofa 1
/Mientras naciendo comienzas a morir, sólo una razón para vivir,
alguien trajo alivio, alguien trajo esa razón...
donde está Oh muerte entonces tu aguijón.

B   A   C#               F#   E   G#m       A          G#m     F#
Estoy,   me di vuelta un rato, volví y hay muerte, hay muerte..e
    E               F#                           E     F#
Yo sé que hay eternidad |G-G#m| mi alma puede estar segura.
     E               F#                         E         F#
Un Dios, un eterno Dios, |G-G#m| en el no hay ayer ni muerte.


Yo no pude comprender todo lo que te hablé cuando dije:
todo cambia y se va. El espacio ahora me hizo comprender
que uno 2 instantes y mi vida fue.
Estoy, me di vuelta un rato, volví y hay muerte, y hay muerte.
Yo sé que hay eternidad, mi alma puede estar segura.
Dios, un eterno Dios, en el no hay ayer ni muerte.


acorde   |1ra. | 2da. | 3ra. | 4ta. | 5ta. | 6ta.|
B5 =       x      x      x      9      9      7
A5 =       x      x      x      7      7      5

------------------------------------------------------------------
Dios los bendiga!
Aguante CRISTO y Kyosko!
turc-73@

            
            
Suggest correction
Creating personal tab
Creating personal tab
You can edit any tab online and save it as your Personal.

You can edit, replace or remove any tab part or add personal notes – all changes will be seen only by you.

Personal tabs can be accessed anytime from any device, even offline.
Learn more »
Give kudos to tab author, rate the tab!
1 2 3 4 5
comments
print report bad tab
guest
Wanna post a correction for this tab? Suggest correction