Oops, an error
Loading. Please wait.

Borde Real chords

version 1
version 1

Whole song

by Kyosko
27 views 1 this week
no commentswrite comment
1 2 3 4 5
3 more votes to show rating
add to favorites
×
Save as Personal and add changes to this tab that will be seen only by you. Learn more ›
×
You can save this tab as Personal to edit and correct it or add notes. All changes will be seen only by you. Learn more »
launch autoscroll
font size
0
reset
transpose
0
reset
display chords
guitar tuner
edit
Autoscroll
slow
fast
+/-
esc
set tempo
stop
Strumming
There is no strumming pattern for this song yet. and get +5 IQ
Hola! Bueno, aca va Borde Real.
En la intro el teclado hace un par devariaciones de tonos.
Como nose como se llaman en la guitarra, deje la nota base.
El punteo lo separe en dos porque no me entraba, pero ya seguro
se darán cuenta donde es.

INTRO: E-C#m


E
Sigues, no te vas, no quedás
C#m
Luces, caras, filos y marcas
E
Prótesis de un cuerpo vivaz
C#m
Está pero no está, solo engaña

C#m             B         D
Borde real, te caerás
C#m               B       D
Despertar, de este sueño

CORO:
A                  B
No hay un convenio falso
D-E             A
La muerte no es descanso
A                  B
Adentro no es afuera
D-E             A
Él sólo es quien te espera

RIFF:
e|-7-4---7-4--9----------------------------------------|
B|--------------9-7-5-7-5-8-8-7-5-0--------------------|
G|-----------------------------------------------------|
D|-----------------------------------------------------|
A|-----------------------------------------------------|
E|-----------------------------------------------------|


e|-4---7-9---------------------------------------------|
B|----------9-7-5-7-5-5----5-7-5-8-7-5-----------------|
G|-----------------------------------------------------|
D|-----------------------------------------------------|
A|-----------------------------------------------------|
E|-----------------------------------------------------|


MISMA SECUENCIA:

Voy, escucho, veo y estas
salto al infinito y me abraza
el latido del corazón
Vive, espera, sabe y lo alcanza

Borde real
luz del alma
despertar en sus sueños.

CORO:
A                  B
No hay un convenio falso
D-E             A
La muerte no es descanso
A                  B
Adentro no es afuera
D-E             A
Él sólo es quien te espera.


A                  B
Adentro no es afuera
D-E             A
Él sólo es quien te espera.


BUENO, ESPERO QUE LES HAYA SERVIDO!
DIOS LOS BENDIGA!!
Mateo..

            
            
Suggest correction
Creating personal tab
Creating personal tab
You can edit any tab online and save it as your Personal.

You can edit, replace or remove any tab part or add personal notes – all changes will be seen only by you.

Personal tabs can be accessed anytime from any device, even offline.
Learn more »
Give kudos to tab author, rate the tab!
1 2 3 4 5
comments
print report bad tab
guest
Wanna post a correction for this tab? Suggest correction