Oops, an error
Loading. Please wait.

Riesgos Del Amor tab

by Kyosko
84 views 1 this week
no commentswrite comment
1 2 3 4 5
3 more votes to show rating
add to favorites
×
Save as Personal and add changes to this tab that will be seen only by you. Learn more ›
×
You can save this tab as Personal to edit and correct it or add notes. All changes will be seen only by you. Learn more »
launch autoscroll
font size
0
reset
how to read this tab
guitar tuner
edit
Autoscroll
slow
fast
+/-
esc
set tempo
stop
Intro // C - F // - C - Am - Dm - F


C                                              F
 Subiendo sobre una cruz que vive entre los dos,
                 C
 La elección de cada día.
C                                      F
 Es donde tallé todas mis formas de decir
F                C
 Este fin es el comienzo.


Am               D
 Esa siempre fue la razón,
Dm                F                      G
 Lugar en que el corazón vuelve a arriesgar.


 C - Am - Dm - F


C                                         F
 Cediendo la libertad en tus manos de elegir
                   C
 Me vulnera en esta espera.
C                                         F
 Recuerda que la pasión regresa en redención
                  C
Y atraviesa el infinito.


Am               D
 El mundo se pobló de Dios,
Dm          F                   G
 El paisaje de su voz y nace la paz.


Coro:


C     E       F        Am           C  E
 Mira, sus palabras cabalgan hacía mí,
        F         Am             C E
Me atraviesan, resuenan con su voz, con su voz.


  F                       Dm
|-----------------------------------------------|
|-10-10-10-12-12-12-13-13-10-10-12-12-13-13-13--|
|-----------------------------------------------|
|-----------------------------------------------|
|-----------------------------------------------|
|-----------------------------------------------|

  Am                G
|-----------------------------------------------|
|-------------10-------------10-----------------|
|-9-9-9-12-12----12-9-9-9-12--------------------|
|-------------------------------12-12-12-10-----|
|-----------------------------------------------|
|-----------------------------------------------|

  F                       Dm
|-------------------------------------------15--|
|-10-10-10-12-12-12-13-13-10-10-12-12-12-13-----|
|-----------------------------------------------|
|-----------------------------------------------|
|-----------------------------------------------|
|-----------------------------------------------|

  Am                G
|-----------------------------------------------|
|-------------10-------------10-----------------|
|-9-9-9-12-12----12-9-9-9-12--------------------|
|-------------------------------12-12-12-10-----|
|-----------------------------------------------|
|-----------------------------------------------|


Coro:


C     E       F        Am           C  E
 Mira, sus palabras cabalgan hacía mí,
        F         Am             C E
Me atraviesan, resuenan con su voz, por amor.


 C - Am - Dm - F


 //C - F// C .

            
            
Suggest correction
Creating personal tab
Creating personal tab
You can edit any tab online and save it as your Personal.

You can edit, replace or remove any tab part or add personal notes – all changes will be seen only by you.

Personal tabs can be accessed anytime from any device, even offline.
Learn more »
Give kudos to tab author, rate the tab!
1 2 3 4 5
comments
print report bad tab
guest
Wanna post a correction for this tab? Suggest correction