Oops, an error
Loading. Please wait.

Happy Birthday tab

version 1
version 1

Whole song

Interactive

by Kyuss
10,071 views 1 this week
3 commentsread comments
1 2 3 4 5
1 last vote to show rating
add to favorites
×
Save as Personal and add changes to this tab that will be seen only by you. Learn more ›
×
You can save this tab as Personal to edit and correct it or add notes. All changes will be seen only by you. Learn more »
launch autoscroll
font size
0
reset
how to read this tab
guitar tuner
edit
Autoscroll
slow
fast
+/-
esc
set tempo
stop
Author
Difficulty
Tabbers playing skills
intermediate ++
-------------------------------------------------------------------------------
                            HAPPY BIRTHDAY - Kyuss
-------------------------------------------------------------------------------

Tabbed by: brian_s
Email: branimir.sremec@kc.t-com.hr


INTRO:
C#-----------|---------------------------------------------------------|
G#-----------|---------------------------------------------------------|
E------------|---------------------------------------------------------|
B------------|---------------------------------------------------------|
F#-----------|---------------------------------------------------------|
C#---6p4h6---|---6x-6x-6x-6x-6x-6x-6x-6x-6x-6x-6x-6x-6x-6x-6x-6x--6b---|

C#------------------------------------------------|
G#------------------------------------------------|
E-------------------------------------------------|  2x
B-------------------------------8-8--11-11--8-8---|
F#--------8-8--11-11--8-8--7-7--------------------|
C#---6-6------------------------------------------|

C#-------------------------------------------------------------------|
G#-------------------------------------------------------------------|
E--------------------------------------------------------------------|
B----t11p8---t11p8---t11p8---t11p8---t11p8---t11p8---t11p8---t11p8---|
F#-------------------------------------------------------------------|
C#-------------------------------------------------------------------|

C#-------------------------------------------------------------------|
G#-------------------------------------------------------------------|
E--------------------------------------------------------------------|
B----t13p8---t13p8---t13p8---t13p8---t13p8---t13p8---t13p8---t13p8---|
F#-------------------------------------------------------------------|
C#-------------------------------------------------------------------|

C#-------------------------------------------------------------------|
G#-------------------------------------------------------------------|
E--------------------------------------------------------------------|
B----t15p8---t15p8---t15p8---t15p8---t15p8---t15p8---t15p8---13h15---|
F#-------------------------------------------------------------------|
C#-------------------------------------------------------------------|

C#----------------------------------------------------|
G#----------------------------------------------------|
E-----------------------------------------------------|  3x
B-----------------------------------------------------|
F#-------------------8-7-8--------------------8-7-4---|
C#---6x-6x-6x-6x-6x-----------2x-2x-2x-2x-2x----------|

C#---------------------------------------------|
G#---------------------------------------------|
E----------------------------------------------|
B----------------------------------------------|
F#-------------------8-7-8-7-8-7-8-7-8-7-8-7---|
C#---6x-6x-6x-6x-6x----------------------------|


VERSE:
C#------------------------------------------|
G#------------------------------------------|
E------------------------6-6-—6x-6x-6x-6x---|
B----8-8--8x-8x-8x-8x----6-6-—6x-6x-6x-6x---|  ---
F#---8-8--8x-8x-8x-8x----4-4—-4x-4x-4x-4x---|     |
C#---6-6-—6x-6x-6x-6x-----------------------|     |
                                                  |   8x
C#------------------------------------------|     |
G#------------------------------------------|     | 
E------------------------8-8--8x-8x-8x-8x---|     |
B----4-4--4x-4x-4x-4x----8-8--8x-8x-8x-8x---|  ---  
F#---4-4--4x-4x-4x-4x----6-6-—6x-6x-6x-6x---|
C#---2-2—-2x-2x-2x-2x-----------------------|


SOLO:
C#--------------------------------------|
G#--------------------------------------|
E---------------------------------------|
B---------------------------------------|
F#--------------------------------------|
C#---6-6-6-6-6-6-6-6--8-8-8-8-8-8-8-8---|

C#----------------------------------------|
G#----------------------------------------|
E-----------------------------------------|
B-----------------------------------------|
F#------------8-8-8-8-----------8-8-8-8---|
C#---9-9-9-9-----------9-9-9-9------------|

C#------------------------------------------------|
G#------------------------------------------------|
E-------------------------------------------------|
B---------8------------8----------------8---------|
F#---8-11---11----8-11----11-11----8-11---11-11---|
C#------------------------------------------------|

C#----------------------|
G#----------------------|
E----------10-----------|  4x
B----10h11----11p10p8---|
F#----------------------|
C#----------------------|

C#----(play 6x)----|---------|
G#-----------------|---------|
E------------------|---------|  
B----10h11h13p11---|---11b---|
F#-----------------|---------|
C#-----------------|---------|

C#-----------------------------------------------------------|
G#-----------------------------------------------------------|
E------------------------------------------------------------|  
B------------------------------------------------------------|
F#-----------------------------------------------------------|
C#---6h8h9p8--6h8h9p8--6h8h9p8---6h8h9p8--6h8h9p8--6h8h9p8---|

C#--------------------------------------------------------------------|
G#--------------------------------------------------------------------|
E---------------------------------------------------------------------|  
B---------------------------------------------------------------------|
F#-------8---------8---------8---------8-------11-13---13-13-13-13b---|
C#---8h9-—-9---8h9—--9---8h9—--9---8h9—--9----------------------------|



VERSE:
Verse riff  8x


BRIDGE:
C#---------------------------------------|
G#---------------------------------------|
E------------------6-----------------8---|
B----8------8------6—-----3--4-------8---|
F#---8------8------4-—----3--4-------6---|
C#---6------6-------------1--2-----------|
   
C#-----------------------------------|
G#-----------------------------------|
E--------------6-----------------8---|   5x
B----6--8------6--—---3--4-------8---|
F#---6--8------4-—----3--4-------6---|
C#---4--6-------------1--2-----------|   


OUTRO:
Verse riff  6x




P   =  pull of
h   =  hammer-on
t   =  tap note
b   =  bend note
x   =  mute note

            
            
Suggest correction
Creating personal tab
Creating personal tab
You can edit any tab online and save it as your Personal.

You can edit, replace or remove any tab part or add personal notes – all changes will be seen only by you.

Personal tabs can be accessed anytime from any device, even offline.
Learn more »
Give kudos to tab author, rate the tab!
1 2 3 4 5
comments
print report bad tab
3 comments total.
0 reply
HC-Deathroll 41 Apr 11, 2008 03:52 PM

After the tap part it goes:

C#----------------------------------------------------|
G#----------------------------------------------------|
E-----------------------------------------------------| 3x
B-----------------------------------------------------|
F#-------------------8-7-8--------------------8-7-4---|
C#---6x-6x-6x-6x-6x-----------2x-2x-2x-2x-2x----------|

other than that, perfect. Fix that section and you got yourself a perfect tab.
Thanks a lot, for a great tab on a great song.

0 reply
HC-Deathroll 41 Apr 11, 2008 03:56 PM

Also, on the same section i prefer to play the last note as a 9 on the E string rather than a 4 on the A, just less hand movement...

0 reply
HC-Deathroll 41 Apr 11, 2008 04:14 PM

I'm just going to re-tab this in C Standard for those who don't want to go half a step up for this song in comparison to other Kyuss stuff.
I will be giving you full credit, considering I myself never took the time to figure this song out.

guest
You may want to rate the tab now too:
select rating
Wanna post a correction for this tab? Suggest correction