Oops, an error
Loading. Please wait.

Size Queen tab

version 2
version 2

Whole song

by Kyuss
1,668 views 1 this week
2 commentsread comments
1 2 3 4 5
x 4
add to favorites
×
Save as Personal and add changes to this tab that will be seen only by you. Learn more ›
×
You can save this tab as Personal to edit and correct it or add notes. All changes will be seen only by you. Learn more »
launch autoscroll
font size
0
reset
how to read this tab
guitar tuner
edit
Autoscroll
slow
fast
+/-
esc
set tempo
stop
Author
----------------------------------------------------------------------------
                             Size Queen - Kyuss
----------------------------------------------------------------------------

Right,this is one of my favorite songs by Kyuss off the "And the Circus Leaves Town" 
originally in tuning C  F  A# D# G  C


but I have tabbed it in standard for all you Desert Rock fans who are afraid to downtune 
guitars!And just in case your confused,standard is EADGBE


Tabbed by:4Flippy
Email:Eflowff@gmail.com

x3
|------------------------------------------------------------------------||
|------------------------------------------------------------------------||
|------------------------------------------------------------------------||
|--10-10----8-8-----13-13-----6-6-5-----5-5-----5-5-----5-5-----5-5------||
|--10-10----8-8-----13-13-----6-6-5-----5-5-----5-5-----5-5-----5-5------||
|-x-8-8---x-6-6---x-11-11---x-4-4-3---x-3-3---x-3-3---x-3-3---x-3-3------||

x5
|------------------------------------------------------------------------||
|------------------------------------------------------------------------||
|------------------------------------------------------------------------||
|--10-10----8-8-----13-13-----6-6-5-----5-5-----5-5-----9-9-----9-9s-10--||
|--10-10----8-8-----13-13-----6-6-5-----5-5-----5-5-----9-9-----9-9s-10--||
|-x-8-8---x-6-6---x-11-11---x-4-4-3---x-3-3---x-3-3---x-7-7---x-7-7s-8---||


x8
|------------------------------------------------------------------------||
|------------------------------------------------------------------------||
|-12-12-12--s---8--8--s--11-11--s---7--7--s--5-5----5-5-s--7--5----------||
|--x--x--x--s---x--x--s---x--x--s---x--x--s--x-x----x-x-s--x--x----------||
|-10-10-10--s---6--6--s---9--9--s---5--5--s--3-3----3-3-s--5--3----------||
|------------------------------------------------------------------------||


|-------------------------------------------------------------------------|
|-------------------------------------------------------------------------|
|--------8~~--10b12r10---8--7~~---8p7-------4-4-4-4--5---7--5-------------|
|--8h10--------------------------------13~--4-4-4-4--5---7--5-------------|
|-------------------------------------------2-2-2-2--3---5--3-------------|
|-------------------------------------------------------------------------|

x4
|------------------------------------------------------------------------||
|------------------------------------------------------------------------||
|----11-11-11-11-11-11-11-11-11------------------------------------------||
|-----x--x--x--x--x--x--x--x--x------------------------------------------||
|-----9--9--9--9--9--9--9--9--9---3--3------3--3--3p1--------------------||
|-0-------------------------------0--0--1h3-----------3------------------||

 x3
|------------------------------------------------------------------------||
|------------------------------------------------------------------------||
|----11-11-11-11-11-11-11-11-11-s-12--12--11-s-12---12---14--------------||
|-----x--x--x--x--x--x--x--x--x-s--x---x---x-s--x----x----x--------------||
|-----9--9--9--9--9--9--9--9--9-s-10--10---9-s-10---10---12--------------||
|-0----------------------------------------------------------------------||

|-------------------------------------------------------------------------|
|-------------------------------------------------------------------------|
|----11-11-11-11-11-11-11-11-11-------------------------------------------|
|-----x--x--x--x--x--x--x--x--x---2---------------------------------------|
|-----9--9--9--9--9--9--9--9--9---2---------------------------------------|
|-0-------------------------------0---------------------------------------|


| /  slide up
| \  slide down
| h  hammer-on
| p  pull-off
| ~  vibrato
| +  harmonic
| x  Mute note
============================================================================

            
            
Suggest correction
Creating personal tab
Creating personal tab
You can edit any tab online and save it as your Personal.

You can edit, replace or remove any tab part or add personal notes – all changes will be seen only by you.

Personal tabs can be accessed anytime from any device, even offline.
Learn more »
comments
print report bad tab
2 comments total.
0 reply
coffee750ml 10 Aug 05, 2013 08:13 AM

Sounds good to me!

0 reply
happycamper303 10 Aug 17, 2017 07:36 AM

Both x3's should be x4's, other than that pretty good

guest
You may want to rate the tab now too:
select rating
Wanna post a correction for this tab? Suggest correction