Oops, an error
Loading. Please wait.

El Destino tab

38 views 1 this week
no commentswrite comment
1 2 3 4 5
3 more votes to show rating
add to favorites
×
Save as Personal and add changes to this tab that will be seen only by you. Learn more ›
×
You can save this tab as Personal to edit and correct it or add notes. All changes will be seen only by you. Learn more »
launch autoscroll
font size
0
reset
how to read this tab
guitar tuner
edit
Autoscroll
slow
fast
+/-
esc
set tempo
stop
Esta es otra muy buena rola de La Clica (o Clika) de Chihuahua. Toda la cancion es en 
acustica, nada más en el bridge creo que entra una eléctrica. Al final de la canción hay 
un solo muy bueno del bajo, ojalá alguien lo pudiera poner.
Todo lo que puse aquí sería la guitarra 1, pero hay otra guitarra que de repente mete 
unos riffs y que el resto de la canción hace tacet.
Ojalá les guste, porque me estuve un buen rato sacándola y pasándola a tablatura. 
Y si no tienen la canción, ahi viene en el napster, igual que la de solo.
suerte.


INTRO:
e|----------------------------------------------|
B|----------------------------------------------|
G|-5/4---4/2--0---------------------------------|
D|-----5----------------------------------------|
A|----------------------------------------------|
E|----------------------------------------------|

INTRO 2 (2 veces, y en la ultima solo se toca una vez el Re)
e|-------0-------------0-------------0---------3-3-2-2----|
B|---3-----3-------3-----3-------1-----1---1---3-3-3-3----|
G|-0---0-----0-------2-----2---0---0-----0-----0-0-2-2----|
D|---------------0---------------------------------0------|
A|---------------------------3----------------------------|
E|-3-------------------------------------------3----------|


VERSO 1: (se toca con el INTRO 2, hasta que llega al C)
G        D         C  G          D
Otra vez me levanté pensando en ti

G           D                  C
sé que no, no puede seeeeeeer

     G       D
te vuelves a ir

C                G        D (con riff 1)
sé que yo algún día voy a tener alguien en mi

                                           e|-2-2--3-3-3--5-5--3-3-3-----------------|
                                           B|-3-3--3-3-3--3-3--3-3-3-----------------|
                     riff 1 -->            G|-2-2--2-2-2--2-2--2-2-2-----------------|
                                           D|-0----0------0----0---------------------|
                                           A|----------------------------------------|
                                           E|----------------------------------------|


C            G           D (con riff 2)
pero sé que no podré dejar de estar pensando en ti

                                           e|-2-2--3-3-3--5-5--7---------------------|
                                           B|-3-3--3-3-3--3-3--8---------------------|
                     riff 2 -->            G|-2-2--2-2-2--2-2------------------------|
                                           D|-0----0------0--------------------------|
                                           A|----------------------------------------|
                                           E|----------------------------------------|

VERSO 2: Igual que el VERSO 1)

G         D         C     G      D
Por eso quiero decir antes de otro adiós

G          D            C
que mi esperanza nooooo

     G      D
va a tener final

C       G             D (con riff 3)
podría ser que tu destino te hiciera regresar

                                           e|-2-2--3-3-3-3--5-5--7-5-5-----------------|
                                           B|-3-3--3-3-3-3--3-3--8-3-3-----------------|
                     riff 3 -->            G|-2-2--2-2-2-2--2-2--7-2-2-----------------|
                                           D|-0----0--------0--------------------------|
                                           A|------------------------------------------|
                                           E|------------------------------------------|

C           G         D (con riff 2)
a vivir conmigo y no separarnos nunca mas

                                           e|-2-2--3-3-3--5-5--7---------------------|
                                           B|-3-3--3-3-3--3-3--8---------------------|
                     riff 2 -->            G|-2-2--2-2-2--2-2------------------------|
                                           D|-0----0------0--------------------------|
                                           A|----------------------------------------|
                                           E|----------------------------------------|

CORO:
G         D              Am
el destino puede cambiar

       C
y se cruzan los dos caminos

G              D    Am
y me lleve a andar 

       C
de la mano siempre contigo.


VERSO 3: (igual que los anteriores)

G              D          C  G   D
Ahora nada más queda decir solo adiós

G                D                C
sé que puede ser, no sientas igual

G          D
pero otra vez

C        G              D (con riff 4)
te digo que mi destino puede tener guardada ahí

                                           e|-2-2--3-3-3--7-7--5-5-5-----------------|
                                           B|-3-3--3-3-3--8-8--3-3-3-----------------|
                     riff 4 -->            G|-2-2--2-2-2--7-7--2-2-2-----------------|
                                           D|-0----0---------------------------------|
                                           A|----------------------------------------|
                                           E|----------------------------------------|

C        G        D (con riff 5)
tu vida en la mía y en el mismo sendero

                                           e|-2-2--3-3-3--5-5--7-7-7-----------------|
                                           B|-3-3--3-3-3--3-3--8-8-8-----------------|
                     riff 5 -->            G|-2-2--2-2-2--2-2--7-7-7-----------------|
                                           D|-0----0------0--------------------------|
                                           A|----------------------------------------|
                                           E|----------------------------------------|


CORO:
G         D              Am
el destino puede cambiar

       C
y se cruzan los dos caminos

G              D    Am
y me lleve a andar 

       C
de la mano siempre contigo.


BRIDGE:

Em    D  Dsus4           Em    D  Dsus4      Em
nooo quiero sentir tu voz    lejos de mi no, no 

       D    Dsus4        G
sólo quiero tenerte aquíiii...no, no


SOLO (con las notas del verso)

e|-7-7-7-8-7-7-7------------------------7-7-8-8-8-10-10-8-7-8-----------7-7-8-8-8--|
B|-8-8-8-8-8-8-8-10--8-8-8-7-7-8-10-10--8-8-8-8-8--8--8-8-8-8-10-10-8-8-8-8-8-8-8--|
G|---------------11--9-9-9-7-7-9-11-11------------------------11-11-9-9------------|
D|---------------------------------------------------------------------------------|
A|---------------------------------------------------------------------------------|
E|---------------------------------------------------------------------------------|

(esta parte se toca mas rapido)
e|-7-7-7-8-8-8-10-10-10-8-8-8-7-7-7-----------------------------------------|
B|-8-8-8-8-8-8--8--8--8-8-8-8-8-8-8-10-10-10-8-8-8-10-10-10-----------------|
G|----------------------------------11-11-11-9-9-9-11-11-11-----------------|
D|--------------------------------------------------------------------------|
A|--------------------------------------------------------------------------|
E|--------------------------------------------------------------------------|


e|-7-7-7-8-8-8-10-10-10-8-8-8----------------7-7-7-8-8-8-------------------|
B|-8-8-8-8-8-8--8--8--8-8-8-8-8-8-8-10-10-10-8-8-8-8-8-8-------------------|
G|----------------------------9-9-9-11-11-11-------------------------------|
D|-------------------------------------------------------------------------|
A|-------------------------------------------------------------------------|
E|-------------------------------------------------------------------------|

CORO:
G         D              Am
el destino puede cambiar

       C
y se cruzan los dos caminos

G              D    Am
y me lleve a andar 

       C
de la mano siempre contigo.


(Luego siguen los mismos acordes del coro de aqui hasta el final, con las letras de abajo)


el destiiinooo
y se cruzan los dos caminos
el destiiinooo
de la mano siempre contigooo--ooohh, no

noo!!

            
            
Suggest correction
Creating personal tab
Creating personal tab
You can edit any tab online and save it as your Personal.

You can edit, replace or remove any tab part or add personal notes – all changes will be seen only by you.

Personal tabs can be accessed anytime from any device, even offline.
Learn more »
Give kudos to tab author, rate the tab!
1 2 3 4 5
comments
print report bad tab
guest
Wanna post a correction for this tab? Suggest correction