Oops, an error
Loading. Please wait.

Plaza Belgrano tab

23 views 1 this week
no commentswrite comment
1 2 3 4 5
3 more votes to show rating
add to favorites
×
Save as Personal and add changes to this tab that will be seen only by you. Learn more ›
×
You can save this tab as Personal to edit and correct it or add notes. All changes will be seen only by you. Learn more »
launch autoscroll
font size
0
reset
how to read this tab
guitar tuner
edit
Autoscroll
slow
fast
+/-
esc
set tempo
stop
Intro riff: Bb  Am   Gm     Dm   C    Bb(x 2)

 E  ||------13----------------------------------------------------------|
 B  ||-13-15---15-13-11-13-11----10-11-10-11--13-11-10------------------|
 G  ||--------------------------------------------------12-10-----------|
 D  ||--------------------------------------------------------12-10-12--|
 A  ||------------------------------------------------------------------|
 E  ||------------------------------------------------------------------|

  E  ||-13-12-10-----------------------|
  B  ||----------13-11-10-11-13--------|
  G  ||--------------------------------|
  D  ||--------------------------------|
  A  ||--------------------------------|
  E  ||--------------------------------|


Gm                  C
Romance de envido al sol

               Dm               Bb
Que fluye en los árboles como espía
Jean al pasto y guitarron
Rasgando las últimas luces del día

riff: Bb  Am   Gm     Dm   C    Bb(x 2)

Dos peinados de león
Clavas de esclavas de la orden del día
Nadie sabe patinar,
pero ahora se llena la aeropista

  F              Bb                Fm
Y una voz me dice Ramiro, en todo este tiempo a donde te
     C   Csus4   C
has ido

Una vez fuimos como hermanos, eran otras tardes en Plaza Belgrano

riff: Bb  Am   Gm     Dm   C    Bb(x 2)

Otra esquina más allá,
Asoman los brazos de la catedral
En la esquina la estación,
tarararareando nuestra primer canción

Y una voz me dice Ramiro, en todo este tiempo a donde te has ido
Una vez fuimos como hermanos, eran otras tardes en Plaza Belgrano
Solo de viola sobre: Bb  Am   Gm     Dm   C    Bb(X5)

Gm                 C
Y AHORA ME VERAS PASAR
 Dm             Bb          (x4)

SOLO ME VERAS PASAR

Gm                 C
Y AHORA ME VERAS PASAR

Dm             Bb           (x4)
SOLO ME VERAS PASAR


Final:Bb  Am   Gm     Dm   C    Bb(x 2)

            
            
Suggest correction
Creating personal tab
Creating personal tab
You can edit any tab online and save it as your Personal.

You can edit, replace or remove any tab part or add personal notes – all changes will be seen only by you.

Personal tabs can be accessed anytime from any device, even offline.
Learn more »
Give kudos to tab author, rate the tab!
1 2 3 4 5
comments
print report bad tab
guest
Wanna post a correction for this tab? Suggest correction